  0
SECTION
  2
HEADER
  9
$ACADVER
  1
AC1009
  9
$INSBASE
 10
195.525381
 20
71.34156899999999
 30
0.0
  9
$EXTMIN
 10
194.6969538752538
 20
71.03090882822017
 30
0.0
  9
$EXTMAX
 10
405.779921
 20
307.8890181247462
 30
0.0
  9
$LIMMIN
 10
0.0
 20
0.0
  9
$LIMMAX
 10
420.0
 20
297.0
  9
$ORTHOMODE
 70
     0
  9
$REGENMODE
 70
     0
  9
$FILLMODE
 70
     1
  9
$QTEXTMODE
 70
     0
  9
$MIRRTEXT
 70
     0
  9
$DRAGMODE
 70
     2
  9
$LTSCALE
 40
1.0
  9
$OSMODE
 70
     0
  9
$ATTMODE
 70
     1
  9
$TEXTSIZE
 40
3.5
  9
$TRACEWID
 40
0.05
  9
$TEXTSTYLE
  7
STANDARD
  9
$CLAYER
  8
4AN
  9
$CELTYPE
  6
BYLAYER
  9
$CECOLOR
 62
   256
  9
$DIMSCALE
 40
1.0
  9
$DIMASZ
 40
2.5
  9
$DIMEXO
 40
1.0
  9
$DIMDLI
 40
8.0
  9
$DIMRND
 40
0.0
  9
$DIMDLE
 40
0.0
  9
$DIMEXE
 40
2.0
  9
$DIMTP
 40
0.1
  9
$DIMTM
 40
0.1
  9
$DIMTXT
 40
3.5
  9
$DIMCEN
 40
2.0
  9
$DIMTSZ
 40
0.0
  9
$DIMTOL
 70
     0
  9
$DIMLIM
 70
     0
  9
$DIMTIH
 70
     0
  9
$DIMTOH
 70
     0
  9
$DIMSE1
 70
     0
  9
$DIMSE2
 70
     0
  9
$DIMTAD
 70
     1
  9
$DIMZIN
 70
     8
  9
$DIMBLK
  1

  9
$DIMASO
 70
     0
  9
$DIMSHO
 70
     0
  9
$DIMPOST
  1

  9
$DIMAPOST
  1

  9
$DIMALT
 70
     0
  9
$DIMALTD
 70
     2
  9
$DIMALTF
 40
25.39999999999999
  9
$DIMLFAC
 40
1.0
  9
$DIMTOFL
 70
     1
  9
$DIMTVP
 40
0.0
  9
$DIMTIX
 70
     0
  9
$DIMSOXD
 70
     0
  9
$DIMSAH
 70
     0
  9
$DIMBLK1
  1

  9
$DIMBLK2
  1

  9
$DIMSTYLE
  2
*UNNAMED
  9
$DIMCLRD
 70
     0
  9
$DIMCLRE
 70
     0
  9
$DIMCLRT
 70
     0
  9
$DIMTFAC
 40
1.0
  9
$DIMGAP
 40
0.09
  9
$LUNITS
 70
     2
  9
$LUPREC
 70
     3
  9
$SKETCHINC
 40
0.1
  9
$FILLETRAD
 40
20.0
  9
$AUNITS
 70
     0
  9
$AUPREC
 70
     3
  9
$MENU
  1

  9
$ELEVATION
 40
0.0
  9
$PELEVATION
 40
0.0
  9
$THICKNESS
 40
0.0
  9
$LIMCHECK
 70
     0
  9
$BLIPMODE
 70
     0
  9
$CHAMFERA
 40
0.0
  9
$CHAMFERB
 40
0.0
  9
$SKPOLY
 70
     1
  9
$TDCREATE
 40
2449237.369414583
  9
$TDUPDATE
 40
2449394.634524189
  9
$TDINDWG
 40
0.0058612269
  9
$TDUSRTIMER
 40
0.0058612269
  9
$USRTIMER
 70
     1
  9
$ANGBASE
 50
0.0
  9
$ANGDIR
 70
     0
  9
$PDMODE
 70
     3
  9
$PDSIZE
 40
2.0
  9
$PLINEWID
 40
0.0
  9
$COORDS
 70
     2
  9
$SPLFRAME
 70
     0
  9
$SPLINETYPE
 70
     6
  9
$SPLINESEGS
 70
     8
  9
$ATTDIA
 70
     1
  9
$ATTREQ
 70
     1
  9
$HANDLING
 70
     0
  9
$HANDSEED
  5
2D1
  9
$SURFTAB1
 70
     6
  9
$SURFTAB2
 70
     6
  9
$SURFTYPE
 70
     6
  9
$SURFU
 70
     6
  9
$SURFV
 70
     6
  9
$UCSNAME
  2

  9
$UCSORG
 10
0.0
 20
0.0
 30
0.0
  9
$UCSXDIR
 10
1.0
 20
0.0
 30
0.0
  9
$UCSYDIR
 10
0.0
 20
1.0
 30
0.0
  9
$PUCSNAME
  2

  9
$PUCSORG
 10
0.0
 20
0.0
 30
0.0
  9
$PUCSXDIR
 10
1.0
 20
0.0
 30
0.0
  9
$PUCSYDIR
 10
0.0
 20
1.0
 30
0.0
  9
$USERI1
 70
     0
  9
$USERI2
 70
     3
  9
$USERI3
 70
    15
  9
$USERI4
 70
     0
  9
$USERI5
 70
     0
  9
$USERR1
 40
0.0
  9
$USERR2
 40
1.0
  9
$USERR3
 40
0.0
  9
$USERR4
 40
1.0
  9
$USERR5
 40
0.0
  9
$WORLDVIEW
 70
     1
  9
$SHADEDGE
 70
     3
  9
$SHADEDIF
 70
    70
  9
$TILEMODE
 70
     1
  9
$MAXACTVP
 70
    16
  9
$PINSBASE
 10
0.0
 20
0.0
 30
0.0
  9
$PLIMCHECK
 70
     0
  9
$PEXTMIN
 10
1.000000000000000E+20
 20
1.000000000000000E+20
 30
1.000000000000000E+20
  9
$PEXTMAX
 10
-1.000000000000000E+20
 20
-1.000000000000000E+20
 30
-1.000000000000000E+20
  9
$PLIMMIN
 10
0.0
 20
0.0
  9
$PLIMMAX
 10
12.0
 20
9.0
  9
$UNITMODE
 70
     0
  9
$VISRETAIN
 70
     0
  9
$PLINEGEN
 70
     0
  9
$PSLTSCALE
 70
     0
  9
$TREEDEPTH
 70
  3020
  9
$DWGCODEPAGE
  3
undefined
  0
ENDSEC
  0
SECTION
  2
TABLES
  0
TABLE
  2
VPORT
 70
     2
  0
VPORT
  2
*ACTIVE
 70
     0
 10
0.0
 20
0.0
 11
1.0
 21
1.0
 12
358.256705826506
 22
198.9063787156932
 13
0.0
 23
0.0
 14
7.0
 24
7.0
 15
0.0
 25
0.0
 16
0.0
 26
0.0
 36
1.0
 17
0.0
 27
0.0
 37
0.0
 40
255.1296194313865
 41
1.275675675675675
 42
50.0
 43
0.0
 44
0.0
 50
0.0
 51
0.0
 71
     0
 72
 10000
 73
     1
 74
     0
 75
     0
 76
     0
 77
     0
 78
     0
  0
ENDTAB
  0
TABLE
  2
LTYPE
 70
     3
  0
LTYPE
  2
AUSGEZOGEN
 70
    64
  3
Solid line
 72
    65
 73
     0
 40
0.0
  0
LTYPE
  2
ITEM-STRICH
 70
    64
  3
- - - - -
 72
    65
 73
     2
 40
1.5
 49
1.2
 49
-0.3
  0
LTYPE
  2
ITEM-STRICHPGR
 70
    64
  3
____ . ____ . ____ . ____ . ____ . ____ . ____
 72
    65
 73
     4
 40
15.0
 49
10.0
 49
-2.5
 49
0.0
 49
-2.5
  0
ENDTAB
  0
TABLE
  2
LAYER
 70
     6
  0
LAYER
  2
0
 70
     0
 62
     7
  6
AUSGEZOGEN
  0
LAYER
  2
ITEM_50
 70
    64
 62
     7
  6
AUSGEZOGEN
  0
LAYER
  2
ITEM_25
 70
    64
 62
     3
  6
AUSGEZOGEN
  0
LAYER
  2
ITEM_STPG
 70
    64
 62
     4
  6
ITEM-STRICHPGR
  0
LAYER
  2
ITEM_GSTR
 70
    64
 62
     6
  6
ITEM-STRICH
  0
LAYER
  2
4AN
 70
     0
 62
     3
  6
AUSGEZOGEN
  0
ENDTAB
  0
TABLE
  2
STYLE
 70
     1
  0
STYLE
  2
STANDARD
 70
     0
 40
0.0
 41
1.0
 50
0.0
 71
     0
 42
3.5
  3
iso
  4

  0
ENDTAB
  0
TABLE
  2
VIEW
 70
     0
  0
ENDTAB
  0
TABLE
  2
UCS
 70
     0
  0
ENDTAB
  0
TABLE
  2
APPID
 70
     1
  0
APPID
  2
ACAD
 70
    64
  0
ENDTAB
  0
TABLE
  2
DIMSTYLE
 70
     0
  0
ENDTAB
  0
ENDSEC
  0
SECTION
  2
BLOCKS
  0
ENDSEC
  0
SECTION
  2
ENTITIES
  0
LINE
  8
ITEM_STPG
 10
256.910397
 20
299.0605909999999
 30
0.0
 11
247.3322419999999
 21
299.0605909999999
 31
0.0
  0
LINE
  8
ITEM_STPG
 10
210.0864069999999
 20
285.2235529999999
 30
0.0
 11
210.0864069999999
 21
274.3560439999999
 31
0.0
  0
LINE
  8
ITEM_STPG
 10
224.0864069999999
 20
285.2235529999999
 30
0.0
 11
224.0864069999999
 21
274.3560439999999
 31
0.0
  0
ARC
  8
ITEM_50
 62
     7
 10
232.0864069999999
 20
281.4821379999999
 30
0.0
 40
1.0
 50
0.0
 51
90.0
  0
LINE
  8
ITEM_50
 62
     7
 10
233.0864069999999
 20
281.4821379999999
 30
0.0
 11
233.0864069999999
 21
277.4821379999999
 31
0.0
  0
LINE
  8
ITEM_50
 62
     7
 10
232.5864069999999
 20
276.9821379999999
 30
0.0
 11
201.586407
 21
276.9821379999999
 31
0.0
  0
LINE
  8
ITEM_50
 62
     7
 10
201.086407
 20
277.4821379999999
 30
0.0
 11
201.086407
 21
281.4821379999999
 31
0.0
  0
LINE
  8
ITEM_50
 62
     7
 10
202.086407
 20
282.4821379999999
 30
0.0
 11
232.0864069999999
 21
282.4821379999999
 31
0.0
  0
ARC
  8
ITEM_50
 62
     7
 10
202.086407
 20
281.4821379999999
 30
0.0
 40
1.0
 50
90.0
 51
180.0
  0
ARC
  8
ITEM_50
 62
     7
 10
232.5864069999999
 20
277.4821379999999
 30
0.0
 40
0.5
 50
270.0
 51
0.0
  0
ARC
  8
ITEM_50
 62
     7
 10
201.586407
 20
277.4821379999999
 30
0.0
 40
0.5
 50
180.0
 51
270.0
  0
CIRCLE
  8
ITEM_50
 10
210.0864069999999
 20
299.0605909999999
 30
0.0
 40
5.25
  0
CIRCLE
  8
ITEM_50
 10
224.0864069999999
 20
299.0605909999999
 30
0.0
 40
5.25
  0
LINE
  8
ITEM_50
 10
201.086407
 20
303.0605909999999
 30
0.0
 11
201.086407
 21
295.0605909999999
 31
0.0
  0
ARC
  8
ITEM_50
 62
     7
 10
249.480896
 20
306.5605909999999
 30
0.0
 40
0.5
 50
90.0
 51
180.0
  0
ARC
  8
ITEM_50
 62
     7
 10
249.480896
 20
291.5605909999999
 30
0.0
 40
0.5
 50
180.0
 51
270.0
  0
ARC
  8
ITEM_50
 62
     7
 10
253.480896
 20
306.0605909999999
 30
0.0
 40
1.0
 50
0.0
 51
90.0
  0
LINE
  8
ITEM_50
 62
     7
 10
254.480896
 20
306.0605909999999
 30
0.0
 11
254.480896
 21
292.0605909999999
 31
0.0
  0
LINE
  8
ITEM_50
 62
     7
 10
249.480896
 20
307.0605909999999
 30
0.0
 11
253.480896
 21
307.0605909999999
 31
0.0
  0
LINE
  8
ITEM_50
 62
     7
 10
248.980896
 20
291.5605909999999
 30
0.0
 11
248.980896
 21
306.5605909999999
 31
0.0
  0
LINE
  8
ITEM_50
 62
     7
 10
253.480896
 20
291.0605909999999
 30
0.0
 11
249.480896
 21
291.0605909999999
 31
0.0
  0
ARC
  8
ITEM_50
 62
     7
 10
253.480896
 20
292.0605909999999
 30
0.0
 40
1.0
 50
270.0
 51
0.0
  0
LINE
  8
ITEM_50
 10
233.0864069999999
 20
303.0605909999999
 30
0.0
 11
233.0864069999999
 21
295.0605909999999
 31
0.0
  0
LINE
  8
ITEM_50
 62
     7
 10
205.086407
 20
291.0605909999999
 30
0.0
 11
229.0864069999999
 21
291.0605909999999
 31
0.0
  0
LINE
  8
ITEM_50
 62
     7
 10
229.0864069999999
 20
307.0605909999999
 30
0.0
 11
205.086407
 21
307.0605909999999
 31
0.0
  0
CIRCLE
  8
ITEM_50
 10
210.0864069999999
 20
299.0605909999999
 30
0.0
 40
3.5
  0
LINE
  8
ITEM_STPG
 10
210.0864069999999
 20
306.0963479999999
 30
0.0
 11
210.0864069999999
 21
292.3787029999999
 31
0.0
  0
CIRCLE
  8
ITEM_50
 10
224.0864069999999
 20
299.0605909999999
 30
0.0
 40
3.5
  0
LINE
  8
ITEM_STPG
 10
224.0864069999999
 20
306.0963479999999
 30
0.0
 11
224.0864069999999
 21
292.3787029999999
 31
0.0
  0
ARC
  8
ITEM_50
 10
205.086407
 20
303.0605909999999
 30
0.0
 40
4.0
 50
90.0
 51
180.0
  0
ARC
  8
ITEM_50
 10
205.086407
 20
295.0605909999999
 30
0.0
 40
4.0
 50
180.0
 51
270.0
  0
ARC
  8
ITEM_50
 10
229.0864069999999
 20
295.0605909999999
 30
0.0
 40
4.0
 50
270.0
 51
0.0
  0
ARC
  8
ITEM_50
 10
229.0864069999999
 20
303.0605909999999
 30
0.0
 40
4.0
 50
0.0
 51
90.0
  0
LINE
  8
ITEM_STPG
 10
230.436772
 20
299.0605909999999
 30
0.0
 11
203.059983
 21
299.0605909999999
 31
0.0
  0
ARC
  8
ITEM_50
 10
380.2502509999999
 20
177.9758439999999
 30
0.0
 40
0.5
 50
180.0
 51
270.0
  0
LINE
  8
ITEM_50
 10
382.802882
 20
177.4758439999999
 30
0.0
 11
380.2502509999999
 21
177.4758439999999
 31
0.0
  0
LINE
  8
ITEM_50
 62
     7
 10
396.6475779999999
 20
187.984542
 30
0.0
 11
396.6475779999999
 21
188.98491
 31
0.0
  0
LINE
  8
ITEM_25
 10
399.150524
 20
183.473381
 30
0.0
 11
392.2035339999999
 21
183.473381
 31
0.0
  0
LINE
  8
ITEM_25
 10
399.150524
 20
187.493862
 30
0.0
 11
392.2035339999999
 21
187.493862
 31
0.0
  0
LINE
  8
ITEM_50
 10
392.6942139999999
 20
187.984542
 30
0.0
 11
392.6942139999999
 21
182.9827009999999
 31
0.0
  0
LINE
  8
ITEM_50
 10
392.6942139999999
 20
187.984542
 30
0.0
 11
392.2035339999999
 21
187.493862
 31
0.0
  0
LINE
  8
ITEM_50
 10
392.2035339999999
 20
187.493862
 30
0.0
 11
392.2035339999999
 21
183.473381
 31
0.0
  0
LINE
  8
ITEM_50
 10
392.2035339999999
 20
183.473381
 30
0.0
 11
392.6942139999999
 21
182.9827009999999
 31
0.0
  0
LINE
  8
ITEM_50
 10
392.6942139999999
 20
187.984542
 30
0.0
 11
399.150524
 21
187.984542
 31
0.0
  0
LINE
  8
ITEM_50
 10
392.6942139999999
 20
182.9827009999999
 30
0.0
 11
399.150524
 21
182.9827009999999
 31
0.0
  0
LINE
  8
ITEM_50
 10
359.5618109999999
 20
181.982333
 30
0.0
 11
357.0588649999999
 21
181.9426029999999
 31
0.0
  0
LINE
  8
ITEM_50
 10
359.5618109999999
 20
188.98491
 30
0.0
 11
357.0588649999999
 21
189.0246399999999
 31
0.0
  0
LINE
  8
ITEM_50
 62
     7
 10
359.5618109999999
 20
181.982333
 30
0.0
 11
359.5618109999999
 21
188.98491
 31
0.0
  0
LINE
  8
ITEM_50
 10
385.580522
 20
119.2691769999999
 30
0.0
 11
386.1021309999999
 21
116.0977939999999
 31
0.0
  0
LINE
  8
ITEM_GSTR
 62
     6
 10
379.4508769999999
 20
126.374533
 30
0.0
 11
383.2502509999999
 21
126.3142249999999
 31
0.0
  0
LINE
  8
ITEM_GSTR
 62
     6
 10
378.050361
 20
127.7750479999999
 30
0.0
 11
377.7502509999999
 21
127.7750479999999
 31
0.0
  0
LINE
  8
ITEM_GSTR
 62
     6
 10
379.4508769999999
 20
119.1718809999999
 30
0.0
 11
383.2502509999999
 21
119.2321889999999
 31
0.0
  0
LINE
  8
ITEM_GSTR
 62
     6
 10
379.4508769999999
 20
126.374533
 30
0.0
 11
378.050361
 21
127.7750479999999
 31
0.0
  0
LINE
  8
ITEM_GSTR
 62
     6
 10
378.050361
 20
127.7750479999999
 30
0.0
 11
378.050361
 21
117.7713659999999
 31
0.0
  0
LINE
  8
ITEM_GSTR
 62
     6
 10
378.050361
 20
117.7713659999999
 30
0.0
 11
377.7502509999999
 21
117.7713659999999
 31
0.0
  0
LINE
  8
ITEM_GSTR
 62
     6
 10
379.4508769999999
 20
119.1718809999999
 30
0.0
 11
378.050361
 21
117.7713659999999
 31
0.0
  0
LINE
  8
ITEM_50
 10
385.753197
 20
119.2719179999999
 30
0.0
 11
383.2502509999999
 21
119.2321889999999
 31
0.0
  0
LINE
  8
ITEM_50
 10
385.753197
 20
126.2744959999999
 30
0.0
 11
383.2502509999999
 21
126.3142249999999
 31
0.0
  0
LINE
  8
ITEM_50
 62
     7
 10
385.753197
 20
119.2719179999999
 30
0.0
 11
385.753197
 21
126.2744959999999
 31
0.0
  0
LINE
  8
ITEM_STPG
 10
364.3699669999999
 20
122.773207
 30
0.0
 11
378.4796479999999
 21
122.773207
 31
0.0
  0
LINE
  8
ITEM_GSTR
 10
376.60315
 20
117.7713659999999
 30
0.0
 11
376.60315
 21
127.7750479999999
 31
0.0
  0
LINE
  8
ITEM_GSTR
 10
372.2015289999999
 20
125.274128
 30
0.0
 11
372.2015289999999
 21
120.272286
 31
0.0
  0
LINE
  8
ITEM_GSTR
 10
372.2015289999999
 20
124.7834469999999
 30
0.0
 11
373.7020819999999
 21
125.274128
 31
0.0
  0
LINE
  8
ITEM_GSTR
 10
372.2015289999999
 20
120.7629669999999
 30
0.0
 11
373.7020819999999
 21
120.272286
 31
0.0
  0
LINE
  8
ITEM_25
 10
371.8502509999999
 20
120.7629669999999
 30
0.0
 11
364.9032599999999
 21
120.7629669999999
 31
0.0
  0
LINE
  8
ITEM_25
 10
371.8502509999999
 20
124.7834469999999
 30
0.0
 11
364.9032599999999
 21
124.7834469999999
 31
0.0
  0
LINE
  8
ITEM_50
 10
365.393941
 20
125.274128
 30
0.0
 11
365.393941
 21
120.272286
 31
0.0
  0
LINE
  8
ITEM_GSTR
 10
376.9032599999999
 20
117.7713659999999
 30
0.0
 11
376.60315
 21
117.7713659999999
 31
0.0
  0
LINE
  8
ITEM_GSTR
 10
374.102229
 20
120.272286
 30
0.0
 11
374.102229
 21
125.274128
 31
0.0
  0
LINE
  8
ITEM_GSTR
 10
376.60315
 20
127.7750479999999
 30
0.0
 11
376.9032599999999
 21
127.7750479999999
 31
0.0
  0
LINE
  8
ITEM_GSTR
 10
376.9032599999999
 20
127.7750479999999
 30
0.0
 11
376.9032599999999
 21
117.7713659999999
 31
0.0
  0
LINE
  8
ITEM_GSTR
 10
374.102229
 20
125.274128
 30
0.0
 11
371.8502509999999
 21
125.274128
 31
0.0
  0
LINE
  8
ITEM_50
 10
365.393941
 20
125.274128
 30
0.0
 11
364.9032599999999
 21
124.7834469999999
 31
0.0
  0
LINE
  8
ITEM_50
 10
364.9032599999999
 20
124.7834469999999
 30
0.0
 11
364.9032599999999
 21
120.7629669999999
 31
0.0
  0
LINE
  8
ITEM_50
 10
364.9032599999999
 20
120.7629669999999
 30
0.0
 11
365.393941
 21
120.272286
 31
0.0
  0
LINE
  8
ITEM_GSTR
 10
371.8502509999999
 20
120.272286
 30
0.0
 11
374.102229
 21
120.272286
 31
0.0
  0
LINE
  8
ITEM_50
 10
365.393941
 20
125.274128
 30
0.0
 11
371.8502509999999
 21
125.274128
 31
0.0
  0
LINE
  8
ITEM_50
 10
365.393941
 20
120.272286
 30
0.0
 11
371.8502509999999
 21
120.272286
 31
0.0
  0
LINE
  8
ITEM_GSTR
 10
372.2015289999999
 20
124.7834469999999
 30
0.0
 11
371.8502509999999
 21
124.7834469999999
 31
0.0
  0
LINE
  8
ITEM_GSTR
 10
372.2015289999999
 20
120.7629669999999
 30
0.0
 11
371.8502509999999
 21
120.7629669999999
 31
0.0
  0
LINE
  8
ITEM_GSTR
 62
     6
 10
374.102229
 20
125.2739449999999
 30
0.0
 11
376.60315
 21
127.7748659999999
 31
0.0
  0
LINE
  8
ITEM_GSTR
 62
     6
 10
374.1042519999999
 20
120.2743129999999
 30
0.0
 11
376.60315
 21
117.7754159999999
 31
0.0
  0
LINE
  8
ITEM_GSTR
 62
     6
 10
380.998272
 20
139.272011
 30
0.0
 11
378.4973509999999
 21
141.7729319999999
 31
0.0
  0
LINE
  8
ITEM_GSTR
 62
     6
 10
401.4045249999999
 20
120.2743129999999
 30
0.0
 11
403.9034229999999
 21
117.7754159999999
 31
0.0
  0
LINE
  8
ITEM_GSTR
 62
     6
 10
401.4025029999999
 20
125.2739449999999
 30
0.0
 11
403.9034229999999
 21
127.7748659999999
 31
0.0
  0
LINE
  8
ITEM_GSTR
 10
399.5018029999999
 20
120.7629669999999
 30
0.0
 11
399.150524
 21
120.7629669999999
 31
0.0
  0
LINE
  8
ITEM_GSTR
 10
399.5018029999999
 20
124.7834469999999
 30
0.0
 11
399.150524
 21
124.7834469999999
 31
0.0
  0
LINE
  8
ITEM_50
 10
392.6942139999999
 20
120.272286
 30
0.0
 11
399.150524
 21
120.272286
 31
0.0
  0
LINE
  8
ITEM_50
 10
392.6942139999999
 20
125.274128
 30
0.0
 11
399.150524
 21
125.274128
 31
0.0
  0
LINE
  8
ITEM_GSTR
 10
399.150524
 20
120.272286
 30
0.0
 11
401.4025029999999
 21
120.272286
 31
0.0
  0
LINE
  8
ITEM_50
 10
392.2035339999999
 20
120.7629669999999
 30
0.0
 11
392.6942139999999
 21
120.272286
 31
0.0
  0
LINE
  8
ITEM_50
 10
392.2035339999999
 20
124.7834469999999
 30
0.0
 11
392.2035339999999
 21
120.7629669999999
 31
0.0
  0
LINE
  8
ITEM_50
 10
392.6942139999999
 20
125.274128
 30
0.0
 11
392.2035339999999
 21
124.7834469999999
 31
0.0
  0
LINE
  8
ITEM_GSTR
 10
401.4025029999999
 20
125.274128
 30
0.0
 11
399.150524
 21
125.274128
 31
0.0
  0
LINE
  8
ITEM_GSTR
 10
404.2035339999999
 20
127.7750479999999
 30
0.0
 11
404.2035339999999
 21
117.7713659999999
 31
0.0
  0
LINE
  8
ITEM_GSTR
 10
403.9034229999999
 20
127.7750479999999
 30
0.0
 11
404.2035339999999
 21
127.7750479999999
 31
0.0
  0
LINE
  8
ITEM_GSTR
 10
401.4025029999999
 20
120.272286
 30
0.0
 11
401.4025029999999
 21
125.274128
 31
0.0
  0
LINE
  8
ITEM_GSTR
 10
404.2035339999999
 20
117.7713659999999
 30
0.0
 11
403.9034229999999
 21
117.7713659999999
 31
0.0
  0
LINE
  8
ITEM_50
 10
392.6942139999999
 20
125.274128
 30
0.0
 11
392.6942139999999
 21
120.272286
 31
0.0
  0
LINE
  8
ITEM_25
 10
399.150524
 20
124.7834469999999
 30
0.0
 11
392.2035339999999
 21
124.7834469999999
 31
0.0
  0
LINE
  8
ITEM_25
 10
399.150524
 20
120.7629669999999
 30
0.0
 11
392.2035339999999
 21
120.7629669999999
 31
0.0
  0
LINE
  8
ITEM_GSTR
 10
399.5018029999999
 20
120.7629669999999
 30
0.0
 11
401.0023549999999
 21
120.272286
 31
0.0
  0
LINE
  8
ITEM_GSTR
 10
399.5018029999999
 20
124.7834469999999
 30
0.0
 11
401.0023549999999
 21
125.274128
 31
0.0
  0
LINE
  8
ITEM_GSTR
 10
399.5018029999999
 20
125.274128
 30
0.0
 11
399.5018029999999
 21
120.272286
 31
0.0
  0
LINE
  8
ITEM_GSTR
 10
403.9034229999999
 20
117.7713659999999
 30
0.0
 11
403.9034229999999
 21
127.7750479999999
 31
0.0
  0
LINE
  8
ITEM_50
 62
     7
 10
359.5618109999999
 20
119.2719179999999
 30
0.0
 11
359.5618109999999
 21
126.2744959999999
 31
0.0
  0
LINE
  8
ITEM_50
 10
359.5618109999999
 20
126.2744959999999
 30
0.0
 11
357.0588649999999
 21
126.3142249999999
 31
0.0
  0
LINE
  8
ITEM_50
 10
359.5618109999999
 20
119.2719179999999
 30
0.0
 11
357.0588649999999
 21
119.2321889999999
 31
0.0
  0
LINE
  8
ITEM_50
 10
396.6475779999999
 20
133.2719179999999
 30
0.0
 11
399.150524
 21
133.2321889999999
 31
0.0
  0
LINE
  8
ITEM_50
 10
396.6475779999999
 20
140.2744959999999
 30
0.0
 11
399.150524
 21
140.3142249999999
 31
0.0
  0
LINE
  8
ITEM_50
 62
     7
 10
396.6475779999999
 20
133.2719179999999
 30
0.0
 11
396.6475779999999
 21
140.2744959999999
 31
0.0
  0
LINE
  8
ITEM_50
 10
389.70656
 20
134.270353
 30
0.0
 11
383.2502509999999
 21
134.270353
 31
0.0
  0
LINE
  8
ITEM_50
 10
389.70656
 20
139.2721939999999
 30
0.0
 11
383.2502509999999
 21
139.2721939999999
 31
0.0
  0
LINE
  8
ITEM_50
 10
390.197241
 20
134.7610339999999
 30
0.0
 11
389.70656
 21
134.270353
 31
0.0
  0
LINE
  8
ITEM_50
 10
390.197241
 20
138.7815139999999
 30
0.0
 11
390.197241
 21
134.7610339999999
 31
0.0
  0
LINE
  8
ITEM_50
 10
389.70656
 20
139.2721939999999
 30
0.0
 11
390.197241
 21
138.7815139999999
 31
0.0
  0
LINE
  8
ITEM_50
 10
389.70656
 20
139.2721939999999
 30
0.0
 11
389.70656
 21
134.270353
 31
0.0
  0
LINE
  8
ITEM_25
 10
383.2502509999999
 20
138.7815139999999
 30
0.0
 11
390.197241
 21
138.7815139999999
 31
0.0
  0
LINE
  8
ITEM_25
 10
383.2502509999999
 20
134.7610339999999
 30
0.0
 11
390.197241
 21
134.7610339999999
 31
0.0
  0
LINE
  8
ITEM_50
 10
369.5199789999999
 20
140.277237
 30
0.0
 11
368.99837
 21
143.44862
 31
0.0
  0
LINE
  8
ITEM_GSTR
 62
     6
 10
375.649625
 20
140.374533
 30
0.0
 11
371.8502509999999
 21
140.3142249999999
 31
0.0
  0
LINE
  8
ITEM_GSTR
 62
     6
 10
377.0501399999999
 20
141.7750479999999
 30
0.0
 11
377.3502509999999
 21
141.7750479999999
 31
0.0
  0
LINE
  8
ITEM_GSTR
 62
     6
 10
375.649625
 20
133.171881
 30
0.0
 11
371.8502509999999
 21
133.2321889999999
 31
0.0
  0
LINE
  8
ITEM_50
 62
     7
 10
369.347304
 20
133.2719179999999
 30
0.0
 11
369.347304
 21
140.2744959999999
 31
0.0
  0
LINE
  8
ITEM_GSTR
 62
     6
 10
375.649625
 20
140.374533
 30
0.0
 11
377.0501399999999
 21
141.7750479999999
 31
0.0
  0
LINE
  8
ITEM_GSTR
 62
     6
 10
377.0501399999999
 20
131.771366
 30
0.0
 11
377.3502509999999
 21
131.771366
 31
0.0
  0
LINE
  8
ITEM_GSTR
 62
     6
 10
375.649625
 20
133.171881
 30
0.0
 11
377.0501399999999
 21
131.771366
 31
0.0
  0
LINE
  8
ITEM_50
 10
369.347304
 20
140.2744959999999
 30
0.0
 11
371.8502509999999
 21
140.3142249999999
 31
0.0
  0
LINE
  8
ITEM_50
 10
369.347304
 20
133.2719179999999
 30
0.0
 11
371.8502509999999
 21
133.2321889999999
 31
0.0
  0
LINE
  8
ITEM_GSTR
 10
352.305965
 20
131.7694319999999
 30
0.0
 11
352.305965
 21
141.7731149999999
 31
0.0
  0
LINE
  8
ITEM_GSTR
 10
356.7075859999999
 20
139.2721939999999
 30
0.0
 11
356.7075859999999
 21
134.270353
 31
0.0
  0
LINE
  8
ITEM_GSTR
 10
356.7075859999999
 20
138.7815139999999
 30
0.0
 11
355.207033
 21
139.2721939999999
 31
0.0
  0
LINE
  8
ITEM_GSTR
 10
356.7075859999999
 20
134.7610339999999
 30
0.0
 11
355.207033
 21
134.270353
 31
0.0
  0
LINE
  8
ITEM_25
 10
357.0588649999999
 20
134.7610339999999
 30
0.0
 11
364.0058549999999
 21
134.7610339999999
 31
0.0
  0
LINE
  8
ITEM_25
 10
357.0588649999999
 20
138.7815139999999
 30
0.0
 11
364.0058549999999
 21
138.7815139999999
 31
0.0
  0
LINE
  8
ITEM_50
 10
363.515174
 20
139.2721939999999
 30
0.0
 11
363.515174
 21
134.270353
 31
0.0
  0
LINE
  8
ITEM_GSTR
 10
352.0058549999999
 20
131.7694319999999
 30
0.0
 11
352.305965
 21
131.7694319999999
 31
0.0
  0
LINE
  8
ITEM_GSTR
 10
354.8068859999999
 20
134.270353
 30
0.0
 11
354.8068859999999
 21
139.2721939999999
 31
0.0
  0
LINE
  8
ITEM_GSTR
 10
352.305965
 20
141.7731149999999
 30
0.0
 11
352.0058549999999
 21
141.7731149999999
 31
0.0
  0
LINE
  8
ITEM_GSTR
 10
352.0058549999999
 20
141.7731149999999
 30
0.0
 11
352.0058549999999
 21
131.7694319999999
 31
0.0
  0
LINE
  8
ITEM_GSTR
 10
354.8068859999999
 20
139.2721939999999
 30
0.0
 11
357.0588649999999
 21
139.2721939999999
 31
0.0
  0
LINE
  8
ITEM_50
 10
363.515174
 20
139.2721939999999
 30
0.0
 11
364.0058549999999
 21
138.7815139999999
 31
0.0
  0
LINE
  8
ITEM_50
 10
364.0058549999999
 20
138.7815139999999
 30
0.0
 11
364.0058549999999
 21
134.7610339999999
 31
0.0
  0
LINE
  8
ITEM_50
 10
364.0058549999999
 20
134.7610339999999
 30
0.0
 11
363.515174
 21
134.270353
 31
0.0
  0
LINE
  8
ITEM_GSTR
 10
357.0588649999999
 20
134.270353
 30
0.0
 11
354.8068859999999
 21
134.270353
 31
0.0
  0
LINE
  8
ITEM_50
 10
363.515174
 20
139.2721939999999
 30
0.0
 11
357.0588649999999
 21
139.2721939999999
 31
0.0
  0
LINE
  8
ITEM_50
 10
363.515174
 20
134.270353
 30
0.0
 11
357.0588649999999
 21
134.270353
 31
0.0
  0
LINE
  8
ITEM_GSTR
 10
356.7075859999999
 20
138.7815139999999
 30
0.0
 11
357.0588649999999
 21
138.7815139999999
 31
0.0
  0
LINE
  8
ITEM_GSTR
 10
356.7075859999999
 20
134.7610339999999
 30
0.0
 11
357.0588649999999
 21
134.7610339999999
 31
0.0
  0
LINE
  8
ITEM_GSTR
 62
     6
 10
402.949898
 20
140.374533
 30
0.0
 11
399.150524
 21
140.3142249999999
 31
0.0
  0
LINE
  8
ITEM_GSTR
 62
     6
 10
404.350414
 20
141.7750479999999
 30
0.0
 11
404.650524
 21
141.7750479999999
 31
0.0
  0
LINE
  8
ITEM_GSTR
 62
     6
 10
402.949898
 20
133.171881
 30
0.0
 11
399.150524
 21
133.2321889999999
 31
0.0
  0
LINE
  8
ITEM_50
 62
     7
 10
396.6475779999999
 20
181.982333
 30
0.0
 11
396.6475779999999
 21
182.9827009999999
 31
0.0
  0
LINE
  8
ITEM_GSTR
 62
     6
 10
402.949898
 20
140.374533
 30
0.0
 11
404.350414
 21
141.7750479999999
 31
0.0
  0
LINE
  8
ITEM_GSTR
 62
     6
 10
404.350414
 20
141.7750479999999
 30
0.0
 11
404.350414
 21
131.771366
 31
0.0
  0
LINE
  8
ITEM_GSTR
 62
     6
 10
404.350414
 20
131.771366
 30
0.0
 11
404.650524
 21
131.771366
 31
0.0
  0
LINE
  8
ITEM_GSTR
 62
     6
 10
402.949898
 20
133.171881
 30
0.0
 11
404.350414
 21
131.771366
 31
0.0
  0
LINE
  8
ITEM_50
 10
396.6475779999999
 20
188.98491
 30
0.0
 11
399.150524
 21
189.0246399999999
 31
0.0
  0
LINE
  8
ITEM_50
 10
396.6475779999999
 20
181.982333
 30
0.0
 11
399.150524
 21
181.9426029999999
 31
0.0
  0
LINE
  8
ITEM_GSTR
 62
     6
 10
380.998272
 20
134.274403
 30
0.0
 11
378.4973509999999
 21
131.773482
 31
0.0
  0
LINE
  8
ITEM_GSTR
 10
378.4973509999999
 20
131.7694319999999
 30
0.0
 11
378.4973509999999
 21
141.7731149999999
 31
0.0
  0
LINE
  8
ITEM_GSTR
 10
382.898972
 20
139.2721939999999
 30
0.0
 11
382.898972
 21
134.270353
 31
0.0
  0
LINE
  8
ITEM_GSTR
 10
382.898972
 20
138.7815139999999
 30
0.0
 11
381.3984189999999
 21
139.2721939999999
 31
0.0
  0
LINE
  8
ITEM_GSTR
 10
382.898972
 20
134.7610339999999
 30
0.0
 11
381.3984189999999
 21
134.270353
 31
0.0
  0
LINE
  8
ITEM_25
 10
383.2502509999999
 20
183.471448
 30
0.0
 11
390.197241
 21
183.471448
 31
0.0
  0
LINE
  8
ITEM_25
 10
383.2502509999999
 20
187.491928
 30
0.0
 11
390.197241
 21
187.491928
 31
0.0
  0
LINE
  8
ITEM_50
 10
389.70656
 20
187.9826089999999
 30
0.0
 11
389.70656
 21
182.9807669999999
 31
0.0
  0
LINE
  8
ITEM_GSTR
 10
378.197241
 20
131.7694319999999
 30
0.0
 11
378.4973509999999
 21
131.7694319999999
 31
0.0
  0
LINE
  8
ITEM_GSTR
 10
380.998272
 20
134.270353
 30
0.0
 11
380.998272
 21
139.2721939999999
 31
0.0
  0
LINE
  8
ITEM_GSTR
 10
378.4973509999999
 20
141.7731149999999
 30
0.0
 11
378.197241
 21
141.7731149999999
 31
0.0
  0
LINE
  8
ITEM_GSTR
 10
378.197241
 20
141.7731149999999
 30
0.0
 11
378.197241
 21
131.7694319999999
 31
0.0
  0
LINE
  8
ITEM_GSTR
 10
380.998272
 20
139.2721939999999
 30
0.0
 11
383.2502509999999
 21
139.2721939999999
 31
0.0
  0
LINE
  8
ITEM_50
 10
389.70656
 20
187.9826089999999
 30
0.0
 11
390.197241
 21
187.491928
 31
0.0
  0
LINE
  8
ITEM_50
 10
390.197241
 20
187.491928
 30
0.0
 11
390.197241
 21
183.471448
 31
0.0
  0
LINE
  8
ITEM_50
 10
390.197241
 20
183.471448
 30
0.0
 11
389.70656
 21
182.9807669999999
 31
0.0
  0
LINE
  8
ITEM_GSTR
 10
383.2502509999999
 20
134.270353
 30
0.0
 11
380.998272
 21
134.270353
 31
0.0
  0
LINE
  8
ITEM_50
 10
389.70656
 20
187.9826089999999
 30
0.0
 11
383.2502509999999
 21
187.9826089999999
 31
0.0
  0
LINE
  8
ITEM_50
 10
389.70656
 20
182.9807669999999
 30
0.0
 11
383.2502509999999
 21
182.9807669999999
 31
0.0
  0
LINE
  8
ITEM_GSTR
 10
382.898972
 20
138.7815139999999
 30
0.0
 11
383.2502509999999
 21
138.7815139999999
 31
0.0
  0
LINE
  8
ITEM_GSTR
 10
382.898972
 20
134.7610339999999
 30
0.0
 11
383.2502509999999
 21
134.7610339999999
 31
0.0
  0
LINE
  8
ITEM_50
 10
369.347304
 20
181.982333
 30
0.0
 11
371.8502509999999
 21
181.9426029999999
 31
0.0
  0
LINE
  8
ITEM_50
 10
369.347304
 20
188.98491
 30
0.0
 11
371.8502509999999
 21
189.0246399999999
 31
0.0
  0
LINE
  8
ITEM_50
 10
363.515174
 20
182.9807669999999
 30
0.0
 11
359.5618109999999
 21
182.9807669999999
 31
0.0
  0
LINE
  8
ITEM_50
 10
363.515174
 20
187.9826089999999
 30
0.0
 11
359.5618109999999
 21
187.9826089999999
 31
0.0
  0
LINE
  8
ITEM_50
 10
364.0058549999999
 20
183.471448
 30
0.0
 11
363.515174
 21
182.9807669999999
 31
0.0
  0
LINE
  8
ITEM_50
 10
364.0058549999999
 20
187.491928
 30
0.0
 11
364.0058549999999
 21
183.471448
 31
0.0
  0
LINE
  8
ITEM_50
 10
363.515174
 20
187.9826089999999
 30
0.0
 11
364.0058549999999
 21
187.491928
 31
0.0
  0
LINE
  8
ITEM_GSTR
 62
     6
 10
353.259491
 20
119.1718809999999
 30
0.0
 11
351.8589749999999
 21
117.7713659999999
 31
0.0
  0
LINE
  8
ITEM_GSTR
 62
     6
 10
351.8589749999999
 20
117.7713659999999
 30
0.0
 11
351.5588649999999
 21
117.7713659999999
 31
0.0
  0
LINE
  8
ITEM_GSTR
 62
     6
 10
351.8589749999999
 20
127.7750479999999
 30
0.0
 11
351.8589749999999
 21
117.7713659999999
 31
0.0
  0
LINE
  8
ITEM_GSTR
 62
     6
 10
353.259491
 20
126.374533
 30
0.0
 11
351.8589749999999
 21
127.7750479999999
 31
0.0
  0
LINE
  8
ITEM_50
 62
     7
 10
369.347304
 20
181.982333
 30
0.0
 11
369.347304
 21
188.98491
 31
0.0
  0
LINE
  8
ITEM_GSTR
 62
     6
 10
353.259491
 20
119.1718809999999
 30
0.0
 11
357.0588649999999
 21
119.2321889999999
 31
0.0
  0
LINE
  8
ITEM_GSTR
 62
     6
 10
351.8589749999999
 20
127.7750479999999
 30
0.0
 11
351.5588649999999
 21
127.7750479999999
 31
0.0
  0
LINE
  8
ITEM_GSTR
 62
     6
 10
353.259491
 20
126.374533
 30
0.0
 11
357.0588649999999
 21
126.3142249999999
 31
0.0
  0
LINE
  8
ITEM_50
 10
363.515174
 20
187.9826089999999
 30
0.0
 11
363.515174
 21
182.9807669999999
 31
0.0
  0
LINE
  8
ITEM_25
 10
359.5618109999999
 20
187.491928
 30
0.0
 11
364.0058549999999
 21
187.491928
 31
0.0
  0
LINE
  8
ITEM_25
 10
359.5618109999999
 20
183.471448
 30
0.0
 11
364.0058549999999
 21
183.471448
 31
0.0
  0
LINE
  8
ITEM_STPG
 10
249.4831959999999
 20
80.34156899999999
 30
0.0
 11
241.865575
 21
80.34156899999999
 31
0.0
  0
LINE
  8
ITEM_STPG
 10
241.8507749999999
 20
94.34156899999999
 30
0.0
 11
249.3285999999999
 21
94.34156899999999
 31
0.0
  0
LINE
  8
ITEM_GSTR
 10
247.6705859999999
 20
99.34156899999999
 30
0.0
 11
246.3705859999999
 21
99.34156899999999
 31
0.0
  0
ARC
  8
ITEM_GSTR
 10
246.3705859999999
 20
99.54156899999999
 30
0.0
 40
0.2
 50
180.0
 51
270.0
  0
ARC
  8
ITEM_GSTR
 10
247.6705859999999
 20
98.84156899999999
 30
0.0
 40
0.5
 50
0.0
 51
90.0
  0
LINE
  8
ITEM_STPG
 10
244.337981
 20
190.253847
 30
0.0
 11
252.01436
 21
190.253847
 31
0.0
  0
LINE
  8
ITEM_GSTR
 62
     6
 10
245.92376
 20
83.84156899999999
 30
0.0
 11
242.6705859999999
 21
83.84156899999999
 31
0.0
  0
LINE
  8
ITEM_GSTR
 62
     6
 10
245.92376
 20
83.84156899999999
 30
0.0
 11
247.67376
 21
85.59156899999999
 31
0.0
  0
LINE
  8
ITEM_GSTR
 62
     6
 10
245.92376
 20
76.84156899999999
 30
0.0
 11
247.67376
 21
75.09156899999999
 31
0.0
  0
LINE
  8
ITEM_GSTR
 62
     6
 10
245.92376
 20
76.84156899999999
 30
0.0
 11
242.6705859999999
 21
76.84156899999999
 31
0.0
  0
LINE
  8
ITEM_GSTR
 10
245.92376
 20
76.84156899999999
 30
0.0
 11
245.92376
 21
83.84156899999999
 31
0.0
  0
LINE
  8
ITEM_GSTR
 10
247.67376
 20
75.09156899999999
 30
0.0
 11
248.1705859999999
 21
75.09156899999999
 31
0.0
  0
LINE
  8
ITEM_GSTR
 10
247.67376
 20
85.59156899999999
 30
0.0
 11
248.1705859999999
 21
85.59156899999999
 31
0.0
  0
LINE
  8
ITEM_GSTR
 10
247.6705859999999
 20
85.59156899999999
 30
0.0
 11
247.6705859999999
 21
75.09156899999999
 31
0.0
  0
LINE
  8
ITEM_STPG
 10
244.337981
 20
176.253847
 30
0.0
 11
252.01436
 21
176.253847
 31
0.0
  0
LINE
  8
ITEM_GSTR
 10
247.6705859999999
 20
99.59156899999999
 30
0.0
 11
247.6705859999999
 21
89.09156899999999
 31
0.0
  0
LINE
  8
ITEM_GSTR
 10
247.67376
 20
99.59156899999999
 30
0.0
 11
248.1705859999999
 21
99.59156899999999
 31
0.0
  0
LINE
  8
ITEM_GSTR
 10
247.67376
 20
89.09156899999999
 30
0.0
 11
248.1705859999999
 21
89.09156899999999
 31
0.0
  0
LINE
  8
ITEM_GSTR
 10
245.92376
 20
90.84156899999999
 30
0.0
 11
245.92376
 21
97.84156899999999
 31
0.0
  0
LINE
  8
ITEM_GSTR
 62
     6
 10
245.92376
 20
90.84156899999999
 30
0.0
 11
242.6705859999999
 21
90.84156899999999
 31
0.0
  0
LINE
  8
ITEM_GSTR
 62
     6
 10
245.92376
 20
90.84156899999999
 30
0.0
 11
247.67376
 21
89.09156899999999
 31
0.0
  0
LINE
  8
ITEM_GSTR
 62
     6
 10
245.92376
 20
97.84156899999999
 30
0.0
 11
247.67376
 21
99.59156899999999
 31
0.0
  0
LINE
  8
ITEM_GSTR
 62
     6
 10
245.92376
 20
97.84156899999999
 30
0.0
 11
242.6705859999999
 21
97.84156899999999
 31
0.0
  0
LINE
  8
ITEM_GSTR
 10
245.88951
 20
185.003847
 30
0.0
 11
245.88951
 21
195.503847
 31
0.0
  0
LINE
  8
ITEM_GSTR
 10
245.886336
 20
185.003847
 30
0.0
 11
245.38951
 21
185.003847
 31
0.0
  0
LINE
  8
ITEM_GSTR
 10
245.886336
 20
195.503847
 30
0.0
 11
245.38951
 21
195.503847
 31
0.0
  0
LINE
  8
ITEM_GSTR
 10
247.636336
 20
193.753847
 30
0.0
 11
247.636336
 21
186.753847
 31
0.0
  0
LINE
  8
ITEM_GSTR
 62
     6
 10
247.636336
 20
193.753847
 30
0.0
 11
250.88951
 21
193.753847
 31
0.0
  0
LINE
  8
ITEM_GSTR
 62
     6
 10
247.636336
 20
193.753847
 30
0.0
 11
245.886336
 21
195.503847
 31
0.0
  0
LINE
  8
ITEM_GSTR
 62
     6
 10
247.636336
 20
186.753847
 30
0.0
 11
245.886336
 21
185.003847
 31
0.0
  0
LINE
  8
ITEM_GSTR
 62
     6
 10
247.636336
 20
186.753847
 30
0.0
 11
250.88951
 21
186.753847
 31
0.0
  0
LINE
  8
ITEM_GSTR
 62
     6
 10
247.636336
 20
172.753847
 30
0.0
 11
250.88951
 21
172.753847
 31
0.0
  0
LINE
  8
ITEM_GSTR
 62
     6
 10
247.636336
 20
172.753847
 30
0.0
 11
245.886336
 21
171.003847
 31
0.0
  0
LINE
  8
ITEM_GSTR
 62
     6
 10
247.636336
 20
179.753847
 30
0.0
 11
245.886336
 21
181.503847
 31
0.0
  0
LINE
  8
ITEM_GSTR
 62
     6
 10
247.636336
 20
179.753847
 30
0.0
 11
250.88951
 21
179.753847
 31
0.0
  0
LINE
  8
ITEM_GSTR
 10
247.636336
 20
179.753847
 30
0.0
 11
247.636336
 21
172.753847
 31
0.0
  0
LINE
  8
ITEM_GSTR
 10
245.886336
 20
181.503847
 30
0.0
 11
245.38951
 21
181.503847
 31
0.0
  0
LINE
  8
ITEM_GSTR
 10
245.886336
 20
171.003847
 30
0.0
 11
245.38951
 21
171.003847
 31
0.0
  0
LINE
  8
ITEM_GSTR
 10
245.88951
 20
171.003847
 30
0.0
 11
245.88951
 21
181.503847
 31
0.0
  0
ARC
  8
ITEM_50
 10
223.525381
 20
128.611856
 30
0.0
 40
4.0
 50
270.0
 51
0.0
  0
LINE
  8
ITEM_50
 10
223.525381
 20
129.111856
 30
0.0
 11
227.525381
 21
129.111856
 31
0.0
  0
LINE
  8
ITEM_50
 10
225.6593549999999
 20
129.111856
 30
0.0
 11
225.6593549999999
 21
139.9950729999999
 31
0.0
  0
CIRCLE
  8
ITEM_50
 10
204.525381
 20
132.611856
 30
0.0
 40
5.25
  0
CIRCLE
  8
ITEM_50
 10
218.525381
 20
132.611856
 30
0.0
 40
5.25
  0
LINE
  8
ITEM_STPG
 10
198.1750159999999
 20
132.611856
 30
0.0
 11
225.5518049999999
 21
132.611856
 31
0.0
  0
LINE
  8
ITEM_STPG
 10
218.525381
 20
126.2788399999999
 30
0.0
 11
218.525381
 21
138.9253919999999
 31
0.0
  0
CIRCLE
  8
ITEM_50
 10
218.525381
 20
132.611856
 30
0.0
 40
3.5
  0
ARC
  8
ITEM_50
 10
199.525381
 20
136.611856
 30
0.0
 40
4.0
 50
90.0
 51
180.0
  0
ARC
  8
ITEM_50
 10
223.525381
 20
136.611856
 30
0.0
 40
4.0
 50
0.0
 51
90.0
  0
CIRCLE
  8
ITEM_50
 10
204.525381
 20
132.611856
 30
0.0
 40
3.5
  0
LINE
  8
ITEM_50
 62
     7
 10
199.525381
 20
140.611856
 30
0.0
 11
223.525381
 21
140.611856
 31
0.0
  0
LINE
  8
ITEM_STPG
 10
204.525381
 20
138.8372569999999
 30
0.0
 11
204.525381
 21
125.9299689999999
 31
0.0
  0
LINE
  8
ITEM_50
 10
226.525381
 20
113.611856
 30
0.0
 11
198.525381
 21
113.611856
 31
0.0
  0
LINE
  8
ITEM_50
 10
195.525381
 20
114.611856
 30
0.0
 11
195.525381
 21
116.611856
 31
0.0
  0
LINE
  8
ITEM_50
 10
227.525381
 20
136.611856
 30
0.0
 11
227.525381
 21
128.611856
 31
0.0
  0
LINE
  8
ITEM_50
 10
227.525381
 20
117.611856
 30
0.0
 11
227.525381
 21
116.611856
 31
0.0
  0
LINE
  8
ITEM_50
 10
195.525381
 20
116.611856
 30
0.0
 11
195.525381
 21
118.011856
 31
0.0
  0
LINE
  8
ITEM_50
 10
227.525381
 20
116.611856
 30
0.0
 11
227.525381
 21
114.611856
 31
0.0
  0
ARC
  8
ITEM_50
 10
227.425381
 20
129.0118559999999
 30
0.0
 40
0.1
 50
0.0
 51
90.0
  0
ARC
  8
ITEM_50
 10
196.525381
 20
114.611856
 30
0.0
 40
1.0
 50
180.0
 51
270.0
  0
ARC
  8
ITEM_50
 10
226.525381
 20
114.611856
 30
0.0
 40
1.0
 50
270.0
 51
0.0
  0
LINE
  8
ITEM_50
 10
198.525381
 20
113.611856
 30
0.0
 11
196.525381
 21
113.611856
 31
0.0
  0
LINE
  8
ITEM_50
 10
198.525381
 20
129.111856
 30
0.0
 11
196.525381
 21
129.111856
 31
0.0
  0
LINE
  8
ITEM_50
 10
199.525381
 20
128.111856
 30
0.0
 11
199.525381
 21
124.611856
 31
0.0
  0
ARC
  8
ITEM_50
 10
196.525381
 20
129.411856
 30
0.0
 40
1.0
 50
180.0
 51
180.0
  0
ARC
  8
ITEM_50
 10
198.525381
 20
128.111856
 30
0.0
 40
1.0
 50
0.0
 51
90.0
  0
ARC
  8
ITEM_50
 10
198.525381
 20
114.611856
 30
0.0
 40
1.0
 50
270.0
 51
270.0
  0
ARC
  8
ITEM_50
 10
198.525381
 20
114.611856
 30
0.0
 40
1.0
 50
270.0
 51
0.0
  0
ARC
  8
ITEM_50
 10
196.525381
 20
128.111856
 30
0.0
 40
1.0
 50
90.0
 51
180.0
  0
LINE
  8
ITEM_50
 10
223.525381
 20
129.111856
 30
0.0
 11
223.525381
 21
113.611856
 31
0.0
  0
LINE
  8
ITEM_50
 10
223.525381
 20
124.611856
 30
0.0
 11
223.525381
 21
124.611856
 31
0.0
  0
LINE
  8
ITEM_50
 10
223.525381
 20
118.111856
 30
0.0
 11
227.025381
 21
118.111856
 31
0.0
  0
LINE
  8
ITEM_50
 10
196.025381
 20
124.361856
 30
0.0
 11
199.025381
 21
124.361856
 31
0.0
  0
LINE
  8
ITEM_50
 10
195.525381
 20
136.611856
 30
0.0
 11
195.525381
 21
124.611856
 31
0.0
  0
LINE
  8
ITEM_50
 10
195.525381
 20
124.611856
 30
0.0
 11
195.525381
 21
118.111856
 31
0.0
  0
LINE
  8
ITEM_50
 10
199.525381
 20
124.611856
 30
0.0
 11
199.525381
 21
118.111856
 31
0.0
  0
LINE
  8
ITEM_50
 10
195.525381
 20
118.361856
 30
0.0
 11
195.525381
 21
118.261856
 31
0.0
  0
LINE
  8
ITEM_50
 10
196.025381
 20
118.361856
 30
0.0
 11
199.025381
 21
118.361856
 31
0.0
  0
LINE
  8
ITEM_50
 10
199.525381
 20
118.111856
 30
0.0
 11
199.525381
 21
114.611856
 31
0.0
  0
ARC
  8
ITEM_50
 10
227.025381
 20
117.611856
 30
0.0
 40
0.5
 50
0.0
 51
90.0
  0
ARC
  8
ITEM_50
 10
199.025381
 20
123.861856
 30
0.0
 40
0.5
 50
0.0
 51
90.0
  0
ARC
  8
ITEM_50
 10
199.025381
 20
118.861856
 30
0.0
 40
0.5
 50
270.0
 51
0.0
  0
ARC
  8
ITEM_50
 10
196.025381
 20
118.861856
 30
0.0
 40
0.5
 50
180.0
 51
270.0
  0
ARC
  8
ITEM_50
 10
196.025381
 20
123.861856
 30
0.0
 40
0.5
 50
90.0
 51
180.0
  0
LINE
  8
ITEM_STPG
 10
288.4402309999999
 20
132.611856
 30
0.0
 11
264.8492009999999
 21
132.611856
 31
0.0
  0
ARC
  8
ITEM_50
 10
247.286922
 20
102.8415689999999
 30
0.0
 40
0.5
 50
14.99999999999999
 51
90.0
  0
ARC
  8
ITEM_GSTR
 10
247.6705859999999
 20
98.84156899999999
 30
0.0
 40
0.5
 50
0.0
 51
90.0
  0
ARC
  8
ITEM_GSTR
 10
244.1705859999999
 20
101.3415689999999
 30
0.0
 40
2.0
 50
0.0
 51
90.0
  0
LINE
  8
ITEM_GSTR
 10
246.1705859999999
 20
99.54156899999999
 30
0.0
 11
246.1705859999999
 21
101.3415689999999
 31
0.0
  0
ARC
  8
ITEM_GSTR
 10
246.3705859999999
 20
99.54156899999999
 30
0.0
 40
0.2
 50
180.0
 51
270.0
  0
LINE
  8
ITEM_GSTR
 10
247.6705859999999
 20
99.34156899999999
 30
0.0
 11
246.3705859999999
 21
99.34156899999999
 31
0.0
  0
LINE
  8
ITEM_50
 10
248.1705859999999
 20
101.4755439999999
 30
0.0
 11
247.769885
 21
102.9709789999999
 31
0.0
  0
LINE
  8
ITEM_STPG
 10
250.119085
 20
132.611856
 30
0.0
 11
240.343418
 21
132.611856
 31
0.0
  0
ARC
  8
ITEM_50
 10
241.7921899999999
 20
101.3415689999999
 30
0.0
 40
2.0
 50
90.0
 51
189.340033
  0
LINE
  8
ITEM_50
 10
242.6705859999999
 20
83.67756099999999
 30
0.0
 11
239.8187049999999
 21
101.0169819999999
 31
0.0
  0
ARC
  8
ITEM_50
 10
243.6705859999999
 20
102.3415689999999
 30
0.0
 40
1.0
 50
90.0
 51
180.0
  0
ARC
  8
ITEM_50
 10
243.6705859999999
 20
72.34156899999999
 30
0.0
 40
1.0
 50
180.0
 51
270.0
  0
ARC
  8
ITEM_50
 10
247.1705859999999
 20
72.34156899999999
 30
0.0
 40
1.0
 50
270.0
 51
0.0
  0
LINE
  8
ITEM_50
 10
242.6705859999999
 20
102.3415689999999
 30
0.0
 11
242.6705859999999
 21
72.34156899999999
 31
0.0
  0
ARC
  8
ITEM_50
 10
260.573688
 20
118.011856
 30
0.0
 40
0.1
 50
90.0
 51
180.0
  0
ARC
  8
ITEM_50
 10
288.4736879999999
 20
136.611856
 30
0.0
 40
4.0
 50
0.0
 51
90.0
  0
ARC
  8
ITEM_50
 10
288.4736879999999
 20
128.611856
 30
0.0
 40
4.0
 50
270.0
 51
0.0
  0
ARC
  8
ITEM_50
 10
264.4736879999999
 20
128.611856
 30
0.0
 40
4.0
 50
180.0
 51
270.0
  0
ARC
  8
ITEM_50
 10
264.4736879999999
 20
136.611856
 30
0.0
 40
4.0
 50
90.0
 51
180.0
  0
LINE
  8
ITEM_50
 10
292.4736879999999
 20
114.611856
 30
0.0
 11
292.4736879999999
 21
136.611856
 31
0.0
  0
LINE
  8
ITEM_STPG
 10
283.4736879999999
 20
128.2382409999999
 30
0.0
 11
283.4736879999999
 21
137.407047
 31
0.0
  0
CIRCLE
  8
ITEM_50
 10
283.4736879999999
 20
132.611856
 30
0.0
 40
3.5
  0
LINE
  8
ITEM_STPG
 10
269.4736879999999
 20
137.4512799999999
 30
0.0
 11
269.4736879999999
 21
128.3495719999999
 31
0.0
  0
CIRCLE
  8
ITEM_50
 10
269.4736879999999
 20
132.611856
 30
0.0
 40
3.5
  0
ARC
  8
ITEM_50
 62
     7
 10
242.9705859999999
 20
123.211856
 30
0.0
 40
1.399999999999999
 50
0.0
 51
90.0
  0
ARC
  8
ITEM_50
 62
     7
 10
247.1705859999999
 20
139.611856
 30
0.0
 40
1.0
 50
0.0
 51
90.0
  0
LINE
  8
ITEM_50
 62
     7
 10
248.1705859999999
 20
139.611856
 30
0.0
 11
248.1705859999999
 21
129.111856
 31
0.0
  0
LINE
  8
ITEM_50
 62
     7
 10
243.1705859999999
 20
140.611856
 30
0.0
 11
247.1705859999999
 21
140.611856
 31
0.0
  0
LINE
  8
ITEM_50
 62
     7
 10
242.6705859999999
 20
124.611856
 30
0.0
 11
242.6705859999999
 21
140.111856
 31
0.0
  0
LINE
  8
ITEM_50
 62
     7
 10
242.9705859999999
 20
124.611856
 30
0.0
 11
242.6705859999999
 21
124.611856
 31
0.0
  0
LINE
  8
ITEM_50
 62
     7
 10
288.4736879999999
 20
140.611856
 30
0.0
 11
264.4736879999999
 21
140.611856
 31
0.0
  0
LINE
  8
ITEM_50
 62
     7
 10
264.4736879999999
 20
124.611856
 30
0.0
 11
288.4736879999999
 21
124.611856
 31
0.0
  0
ARC
  8
ITEM_50
 10
248.6705859999999
 20
72.84156899999999
 30
0.0
 40
1.5
 50
270.0
 51
0.0
  0
ARC
  8
ITEM_50
 10
250.6705859999999
 20
72.84156899999999
 30
0.0
 40
1.5
 50
270.0
 51
0.0
  0
LINE
  8
ITEM_50
 10
242.605131
 20
114.8129979999999
 30
0.0
 11
244.0776919999999
 21
113.90475
 31
0.0
  0
LINE
  8
ITEM_50
 10
242.482481
 20
118.111856
 30
0.0
 11
240.1705859999999
 21
118.111856
 31
0.0
  0
ARC
  8
ITEM_50
 10
243.4705859999999
 20
119.011856
 30
0.0
 40
0.9
 50
270.0
 51
0.0
  0
ARC
  8
ITEM_50
 10
242.9705859999999
 20
123.211856
 30
0.0
 40
1.399999999999999
 50
90.0
 51
90.0
  0
LINE
  8
ITEM_50
 10
244.3705859999999
 20
123.211856
 30
0.0
 11
244.3705859999999
 21
119.011856
 31
0.0
  0
LINE
  8
ITEM_50
 10
243.4705859999999
 20
118.111856
 30
0.0
 11
242.482481
 21
118.111856
 31
0.0
  0
LINE
  8
ITEM_50
 10
239.8705859999999
 20
117.811856
 30
0.0
 11
239.8705859999999
 21
117.0260699999999
 31
0.0
  0
LINE
  8
ITEM_50
 10
240.1634789999999
 20
116.3189629999999
 30
0.0
 11
242.605131
 21
114.8129979999999
 31
0.0
  0
ARC
  8
ITEM_50
 10
240.1705859999999
 20
117.811856
 30
0.0
 40
0.3
 50
90.0
 51
180.0
  0
LINE
  8
ITEM_50
 10
244.784799
 20
113.611856
 30
0.0
 11
249.1705859999999
 21
113.611856
 31
0.0
  0
ARC
  8
ITEM_50
 10
244.784799
 20
114.611856
 30
0.0
 40
1.0
 50
225.0
 51
270.0
  0
ARC
  8
ITEM_50
 10
240.8705859999999
 20
117.0260699999999
 30
0.0
 40
1.0
 50
180.0
 51
225.0
  0
LINE
  8
ITEM_50
 10
248.1705859999999
 20
129.111856
 30
0.0
 11
249.1705859999999
 21
129.111856
 31
0.0
  0
LINE
  8
ITEM_25
 10
245.3705859999999
 20
123.111856
 30
0.0
 11
245.3705859999999
 21
114.057861
 31
0.0
  0
ARC
  8
ITEM_25
 10
243.8705859999999
 20
123.111856
 30
0.0
 40
1.5
 50
0.0
 51
90.0
  0
ARC
  8
ITEM_50
 10
242.9705859999999
 20
123.211856
 30
0.0
 40
1.399999999999999
 50
0.0
 51
90.0
  0
ARC
  8
ITEM_50
 10
250.6705859999999
 20
117.861856
 30
0.0
 40
0.5
 50
90.0
 51
180.0
  0
ARC
  8
ITEM_50
 10
250.6705859999999
 20
124.861856
 30
0.0
 40
0.5
 50
180.0
 51
270.0
  0
LINE
  8
ITEM_50
 10
250.6705859999999
 20
124.361856
 30
0.0
 11
251.6705859999999
 21
124.361856
 31
0.0
  0
ARC
  8
ITEM_50
 10
251.6705859999999
 20
123.861856
 30
0.0
 40
0.5
 50
0.0
 51
90.0
  0
ARC
  8
ITEM_50
 10
251.6705859999999
 20
118.861856
 30
0.0
 40
0.5
 50
270.0
 51
0.0
  0
LINE
  8
ITEM_50
 10
252.1705859999999
 20
123.861856
 30
0.0
 11
252.1705859999999
 21
118.861856
 31
0.0
  0
ARC
  8
ITEM_50
 10
249.1705859999999
 20
114.611856
 30
0.0
 40
1.0
 50
270.0
 51
0.0
  0
ARC
  8
ITEM_50
 10
249.1705859999999
 20
128.111856
 30
0.0
 40
1.0
 50
0.0
 51
90.0
  0
LINE
  8
ITEM_50
 10
250.1705859999999
 20
128.111856
 30
0.0
 11
250.1705859999999
 21
124.861856
 31
0.0
  0
LINE
  8
ITEM_50
 10
250.1705859999999
 20
117.861856
 30
0.0
 11
250.1705859999999
 21
114.611856
 31
0.0
  0
LINE
  8
ITEM_50
 10
251.6705859999999
 20
118.361856
 30
0.0
 11
250.6705859999999
 21
118.361856
 31
0.0
  0
LINE
  8
ITEM_25
 10
262.417718
 20
116.6930739999999
 30
0.0
 11
262.417718
 21
117.9440169999999
 31
0.0
  0
ARC
  8
ITEM_50
 10
291.4736879999999
 20
114.611856
 30
0.0
 40
1.0
 50
270.0
 51
0.0
  0
ARC
  8
ITEM_50
 10
261.4736879999999
 20
114.611856
 30
0.0
 40
1.0
 50
180.0
 51
270.0
  0
ARC
  8
ITEM_50
 10
291.4736879999999
 20
114.611856
 30
0.0
 40
1.0
 50
270.0
 51
0.0
  0
LINE
  8
ITEM_50
 10
247.286922
 20
103.3415689999999
 30
0.0
 11
241.7921899999999
 21
103.3415689999999
 31
0.0
  0
LINE
  8
ITEM_50
 10
248.6705859999999
 20
75.34156899999999
 30
0.0
 11
250.1705859999999
 21
75.34156899999999
 31
0.0
  0
LINE
  8
ITEM_50
 10
252.1705859999999
 20
72.84156899999999
 30
0.0
 11
252.1705859999999
 21
74.34156899999999
 31
0.0
  0
ARC
  8
ITEM_50
 10
292.373688
 20
118.011856
 30
0.0
 40
0.1
 50
0.0
 51
90.0
  0
LINE
  8
ITEM_50
 10
260.4736879999999
 20
136.611856
 30
0.0
 11
260.4736879999999
 21
128.611856
 31
0.0
  0
LINE
  8
ITEM_50
 10
260.573688
 20
118.111856
 30
0.0
 11
266.4736879999999
 21
118.111856
 31
0.0
  0
LINE
  8
ITEM_50
 10
286.4736879999999
 20
118.111856
 30
0.0
 11
292.373688
 21
118.111856
 31
0.0
  0
LINE
  8
ITEM_50
 10
268.4736879999999
 20
118.111856
 30
0.0
 11
284.4736879999999
 21
118.111856
 31
0.0
  0
LINE
  8
ITEM_50
 10
260.4736879999999
 20
114.611856
 30
0.0
 11
260.4736879999999
 21
115.8908379999999
 31
0.0
  0
LINE
  8
ITEM_50
 10
291.4736879999999
 20
113.611856
 30
0.0
 11
261.4736879999999
 21
113.611856
 31
0.0
  0
LINE
  8
ITEM_50
 10
284.4736879999999
 20
118.111856
 30
0.0
 11
286.4736879999999
 21
118.111856
 31
0.0
  0
LINE
  8
ITEM_50
 10
266.4736879999999
 20
118.111856
 30
0.0
 11
268.4736879999999
 21
118.111856
 31
0.0
  0
LINE
  8
ITEM_50
 10
248.1705859999999
 20
72.34156899999999
 30
0.0
 11
248.1705859999999
 21
101.4755439999999
 31
0.0
  0
ARC
  8
ITEM_50
 10
251.1705859999999
 20
74.34156899999999
 30
0.0
 40
1.0
 50
0.0
 51
90.0
  0
ARC
  8
ITEM_50
 10
248.6705859999999
 20
75.84156899999999
 30
0.0
 40
0.5
 50
180.0
 51
270.0
  0
LINE
  8
ITEM_50
 10
250.1705859999999
 20
75.34156899999999
 30
0.0
 11
251.1705859999999
 21
75.34156899999999
 31
0.0
  0
LINE
  8
ITEM_50
 10
250.1705859999999
 20
72.84156899999999
 30
0.0
 11
250.1705859999999
 21
74.84156899999999
 31
0.0
  0
LINE
  8
ITEM_50
 10
243.6705859999999
 20
71.34156899999999
 30
0.0
 11
250.6705859999999
 21
71.34156899999999
 31
0.0
  0
ARC
  8
ITEM_50
 10
249.6705859999999
 20
74.84156899999999
 30
0.0
 40
0.5
 50
0.0
 51
90.0
  0
LINE
  8
ITEM_50
 10
264.4736879999999
 20
124.611856
 30
0.0
 11
264.4736879999999
 21
118.111856
 31
0.0
  0
POLYLINE
  8
ITEM_50
 66
     1
 10
0.0
 20
0.0
 30
0.0
  0
VERTEX
  8
ITEM_50
 10
263.582286
 20
116.4204249999999
 30
0.0
 42
0.021189
 70
     2
 50
162.4239179999999
  0
VERTEX
  8
ITEM_50
 10
263.293833
 20
116.4707819999999
 30
0.0
 42
0.032627
  0
VERTEX
  8
ITEM_50
 10
262.4736879999999
 20
116.524356
 30
0.0
 42
0.032627
  0
VERTEX
  8
ITEM_50
 10
261.653543
 20
116.4707819999999
 30
0.0
 42
0.044103
  0
VERTEX
  8
ITEM_50
 10
261.059475
 20
116.3388029999999
 30
0.0
 42
0.086741
 70
     2
 50
197.576082
  0
VERTEX
  8
ITEM_50
 10
260.5689089999999
 20
116.083528
 30
0.0
 42
0.2336
  0
VERTEX
  8
ITEM_50
 10
260.4736879999999
 20
115.8908379999999
 30
0.0
 42
0.2336
  0
SEQEND
  8
ITEM_50
  0
LINE
  8
ITEM_50
 10
263.582286
 20
116.4204249999999
 30
0.0
 11
291.9925
 21
113.756968
 31
0.0
  0
LINE
  8
ITEM_50
 10
260.4736879999999
 20
115.8908379999999
 30
0.0
 11
260.4736879999999
 21
118.011856
 31
0.0
  0
ARC
  8
ITEM_50
 62
     7
 10
243.1705859999999
 20
140.111856
 30
0.0
 40
0.5
 50
90.0
 51
180.0
  0
ARC
  8
ITEM_50
 10
264.4736879999999
 20
223.755666
 30
0.0
 40
4.0
 50
180.0
 51
270.0
  0
LINE
  8
ITEM_50
 10
264.4736879999999
 20
224.255666
 30
0.0
 11
260.4736879999999
 21
224.255666
 31
0.0
  0
LINE
  8
ITEM_50
 10
262.339714
 20
224.255666
 30
0.0
 11
262.339714
 21
235.1388819999999
 31
0.0
  0
CIRCLE
  8
ITEM_50
 10
283.4736879999999
 20
227.755666
 30
0.0
 40
5.25
  0
CIRCLE
  8
ITEM_50
 10
269.4736879999999
 20
227.755666
 30
0.0
 40
5.25
  0
LINE
  8
ITEM_STPG
 10
289.8240529999999
 20
227.755666
 30
0.0
 11
262.447264
 21
227.755666
 31
0.0
  0
LINE
  8
ITEM_STPG
 10
269.4736879999999
 20
234.791423
 30
0.0
 11
269.4736879999999
 21
221.0737779999999
 31
0.0
  0
CIRCLE
  8
ITEM_50
 10
269.4736879999999
 20
227.755666
 30
0.0
 40
3.5
  0
ARC
  8
ITEM_50
 10
288.4736879999999
 20
231.755666
 30
0.0
 40
4.0
 50
0.0
 51
90.0
  0
ARC
  8
ITEM_50
 10
264.4736879999999
 20
231.755666
 30
0.0
 40
4.0
 50
90.0
 51
180.0
  0
CIRCLE
  8
ITEM_50
 10
283.4736879999999
 20
227.755666
 30
0.0
 40
3.5
  0
LINE
  8
ITEM_50
 62
     7
 10
288.4736879999999
 20
235.755666
 30
0.0
 11
264.4736879999999
 21
235.755666
 31
0.0
  0
LINE
  8
ITEM_STPG
 10
283.4736879999999
 20
234.791423
 30
0.0
 11
283.4736879999999
 21
221.0737779999999
 31
0.0
  0
LINE
  8
ITEM_50
 10
261.4736879999999
 20
208.7556659999999
 30
0.0
 11
289.4736879999999
 21
208.7556659999999
 31
0.0
  0
LINE
  8
ITEM_50
 10
292.4736879999999
 20
209.755666
 30
0.0
 11
292.4736879999999
 21
211.755666
 31
0.0
  0
LINE
  8
ITEM_50
 10
260.4736879999999
 20
231.755666
 30
0.0
 11
260.4736879999999
 21
223.755666
 31
0.0
  0
LINE
  8
ITEM_50
 10
260.4736879999999
 20
212.755666
 30
0.0
 11
260.4736879999999
 21
211.755666
 31
0.0
  0
LINE
  8
ITEM_50
 10
292.4736879999999
 20
211.755666
 30
0.0
 11
292.4736879999999
 21
213.155666
 31
0.0
  0
LINE
  8
ITEM_50
 10
260.4736879999999
 20
211.755666
 30
0.0
 11
260.4736879999999
 21
209.755666
 31
0.0
  0
ARC
  8
ITEM_50
 10
260.573688
 20
224.155666
 30
0.0
 40
0.1
 50
90.0
 51
180.0
  0
ARC
  8
ITEM_50
 10
291.4736879999999
 20
209.755666
 30
0.0
 40
1.0
 50
270.0
 51
0.0
  0
ARC
  8
ITEM_50
 10
261.4736879999999
 20
209.755666
 30
0.0
 40
1.0
 50
180.0
 51
270.0
  0
LINE
  8
ITEM_50
 10
289.4736879999999
 20
208.7556659999999
 30
0.0
 11
291.4736879999999
 21
208.7556659999999
 31
0.0
  0
LINE
  8
ITEM_50
 10
289.4736879999999
 20
224.255666
 30
0.0
 11
291.4736879999999
 21
224.255666
 31
0.0
  0
LINE
  8
ITEM_50
 10
288.4736879999999
 20
223.255666
 30
0.0
 11
288.4736879999999
 21
219.755666
 31
0.0
  0
ARC
  8
ITEM_50
 10
291.4736879999999
 20
224.555666
 30
0.0
 40
1.0
 50
0.0
 51
0.0
  0
ARC
  8
ITEM_50
 10
289.4736879999999
 20
223.255666
 30
0.0
 40
1.0
 50
90.0
 51
180.0
  0
ARC
  8
ITEM_50
 10
289.4736879999999
 20
209.755666
 30
0.0
 40
1.0
 50
270.0
 51
270.0
  0
ARC
  8
ITEM_50
 10
289.4736879999999
 20
209.755666
 30
0.0
 40
1.0
 50
180.0
 51
270.0
  0
ARC
  8
ITEM_50
 10
291.4736879999999
 20
223.255666
 30
0.0
 40
1.0
 50
0.0
 51
90.0
  0
LINE
  8
ITEM_50
 10
264.4736879999999
 20
224.255666
 30
0.0
 11
264.4736879999999
 21
208.7556659999999
 31
0.0
  0
LINE
  8
ITEM_50
 10
264.4736879999999
 20
219.755666
 30
0.0
 11
264.4736879999999
 21
219.755666
 31
0.0
  0
LINE
  8
ITEM_50
 10
264.4736879999999
 20
213.255666
 30
0.0
 11
260.9736879999999
 21
213.255666
 31
0.0
  0
LINE
  8
ITEM_50
 10
291.9736879999999
 20
219.3716709999999
 30
0.0
 11
288.9736879999999
 21
219.3716709999999
 31
0.0
  0
LINE
  8
ITEM_50
 10
292.4736879999999
 20
231.755666
 30
0.0
 11
292.4736879999999
 21
219.755666
 31
0.0
  0
LINE
  8
ITEM_50
 10
292.4736879999999
 20
219.755666
 30
0.0
 11
292.4736879999999
 21
213.255666
 31
0.0
  0
LINE
  8
ITEM_50
 10
288.4736879999999
 20
219.755666
 30
0.0
 11
288.4736879999999
 21
213.255666
 31
0.0
  0
LINE
  8
ITEM_50
 10
292.4736879999999
 20
213.3716709999999
 30
0.0
 11
292.4736879999999
 21
213.2716709999999
 31
0.0
  0
LINE
  8
ITEM_50
 10
291.9736879999999
 20
213.3716709999999
 30
0.0
 11
288.9736879999999
 21
213.3716709999999
 31
0.0
  0
LINE
  8
ITEM_50
 10
288.4736879999999
 20
213.255666
 30
0.0
 11
288.4736879999999
 21
209.755666
 31
0.0
  0
ARC
  8
ITEM_50
 10
260.9736879999999
 20
212.755666
 30
0.0
 40
0.5
 50
90.0
 51
180.0
  0
ARC
  8
ITEM_50
 10
288.9736879999999
 20
218.8716709999999
 30
0.0
 40
0.5
 50
90.0
 51
180.0
  0
ARC
  8
ITEM_50
 10
288.9736879999999
 20
213.8716709999999
 30
0.0
 40
0.5
 50
180.0
 51
270.0
  0
ARC
  8
ITEM_50
 10
291.9736879999999
 20
213.8716709999999
 30
0.0
 40
0.5
 50
270.0
 51
0.0
  0
ARC
  8
ITEM_50
 10
291.9736879999999
 20
218.8716709999999
 30
0.0
 40
0.5
 50
0.0
 51
90.0
  0
LINE
  8
ITEM_STPG
 10
230.436772
 20
227.755666
 30
0.0
 11
203.059983
 21
227.755666
 31
0.0
  0
ARC
  8
ITEM_50
 10
246.273174
 20
198.753847
 30
0.0
 40
0.5
 50
90.0
 51
165.0
  0
ARC
  8
ITEM_GSTR
 10
245.88951
 20
194.753847
 30
0.0
 40
0.5
 50
90.0
 51
180.0
  0
ARC
  8
ITEM_GSTR
 10
249.38951
 20
197.253847
 30
0.0
 40
2.0
 50
90.0
 51
180.0
  0
LINE
  8
ITEM_GSTR
 10
247.38951
 20
195.4538469999999
 30
0.0
 11
247.38951
 21
197.253847
 31
0.0
  0
ARC
  8
ITEM_GSTR
 10
247.18951
 20
195.4538469999999
 30
0.0
 40
0.2
 50
270.0
 51
0.0
  0
LINE
  8
ITEM_GSTR
 10
245.88951
 20
195.253847
 30
0.0
 11
247.18951
 21
195.253847
 31
0.0
  0
LINE
  8
ITEM_50
 10
245.38951
 20
197.387821
 30
0.0
 11
245.7902109999999
 21
198.883256
 31
0.0
  0
LINE
  8
ITEM_STPG
 10
243.44101
 20
227.755666
 30
0.0
 11
253.216677
 21
227.755666
 31
0.0
  0
ARC
  8
ITEM_50
 10
251.767906
 20
197.253847
 30
0.0
 40
2.0
 50
350.6599669999999
 51
90.0
  0
LINE
  8
ITEM_50
 10
250.88951
 20
179.5898389999999
 30
0.0
 11
253.741391
 21
196.9292599999999
 31
0.0
  0
ARC
  8
ITEM_50
 10
249.88951
 20
198.253847
 30
0.0
 40
1.0
 50
0.0
 51
90.0
  0
ARC
  8
ITEM_50
 10
249.88951
 20
168.253847
 30
0.0
 40
1.0
 50
270.0
 51
0.0
  0
ARC
  8
ITEM_50
 10
246.38951
 20
168.253847
 30
0.0
 40
1.0
 50
180.0
 51
270.0
  0
LINE
  8
ITEM_50
 10
250.88951
 20
198.253847
 30
0.0
 11
250.88951
 21
168.253847
 31
0.0
  0
ARC
  8
ITEM_50
 10
232.9864069999999
 20
213.155666
 30
0.0
 40
0.1
 50
0.0
 51
90.0
  0
ARC
  8
ITEM_50
 10
229.0864069999999
 20
231.755666
 30
0.0
 40
4.0
 50
0.0
 51
90.0
  0
ARC
  8
ITEM_50
 10
229.0864069999999
 20
223.755666
 30
0.0
 40
4.0
 50
270.0
 51
0.0
  0
ARC
  8
ITEM_50
 10
205.086407
 20
223.755666
 30
0.0
 40
4.0
 50
180.0
 51
270.0
  0
ARC
  8
ITEM_50
 10
205.086407
 20
231.755666
 30
0.0
 40
4.0
 50
90.0
 51
180.0
  0
LINE
  8
ITEM_50
 10
201.086407
 20
209.755666
 30
0.0
 11
201.086407
 21
231.755666
 31
0.0
  0
LINE
  8
ITEM_STPG
 10
224.0864069999999
 20
234.791423
 30
0.0
 11
224.0864069999999
 21
221.0737779999999
 31
0.0
  0
CIRCLE
  8
ITEM_50
 10
224.0864069999999
 20
227.755666
 30
0.0
 40
3.5
  0
LINE
  8
ITEM_STPG
 10
210.0864069999999
 20
234.791423
 30
0.0
 11
210.0864069999999
 21
221.0737779999999
 31
0.0
  0
CIRCLE
  8
ITEM_50
 10
210.0864069999999
 20
227.755666
 30
0.0
 40
3.5
  0
ARC
  8
ITEM_50
 62
     7
 10
250.58951
 20
218.355666
 30
0.0
 40
1.399999999999999
 50
90.0
 51
180.0
  0
ARC
  8
ITEM_50
 62
     7
 10
246.38951
 20
234.755666
 30
0.0
 40
1.0
 50
90.0
 51
180.0
  0
LINE
  8
ITEM_50
 62
     7
 10
245.38951
 20
234.755666
 30
0.0
 11
245.38951
 21
224.255666
 31
0.0
  0
LINE
  8
ITEM_50
 62
     7
 10
250.38951
 20
235.755666
 30
0.0
 11
246.38951
 21
235.755666
 31
0.0
  0
LINE
  8
ITEM_50
 62
     7
 10
250.88951
 20
219.755666
 30
0.0
 11
250.88951
 21
235.255666
 31
0.0
  0
LINE
  8
ITEM_50
 62
     7
 10
250.58951
 20
219.755666
 30
0.0
 11
250.88951
 21
219.755666
 31
0.0
  0
LINE
  8
ITEM_50
 62
     7
 10
229.0864069999999
 20
235.755666
 30
0.0
 11
205.086407
 21
235.755666
 31
0.0
  0
LINE
  8
ITEM_50
 62
     7
 10
205.086407
 20
219.755666
 30
0.0
 11
229.0864069999999
 21
219.755666
 31
0.0
  0
ARC
  8
ITEM_50
 10
244.88951
 20
168.753847
 30
0.0
 40
1.5
 50
180.0
 51
270.0
  0
ARC
  8
ITEM_50
 10
242.88951
 20
168.753847
 30
0.0
 40
1.5
 50
180.0
 51
270.0
  0
LINE
  8
ITEM_50
 10
250.9549649999999
 20
209.9568069999999
 30
0.0
 11
249.4824029999999
 21
209.048559
 31
0.0
  0
LINE
  8
ITEM_50
 10
251.077614
 20
213.255666
 30
0.0
 11
253.38951
 21
213.255666
 31
0.0
  0
ARC
  8
ITEM_50
 10
250.08951
 20
214.155666
 30
0.0
 40
0.9
 50
180.0
 51
270.0
  0
ARC
  8
ITEM_50
 10
250.58951
 20
218.355666
 30
0.0
 40
1.399999999999999
 50
90.0
 51
90.0
  0
LINE
  8
ITEM_50
 10
249.18951
 20
218.355666
 30
0.0
 11
249.18951
 21
214.155666
 31
0.0
  0
LINE
  8
ITEM_50
 10
250.08951
 20
213.255666
 30
0.0
 11
251.077614
 21
213.255666
 31
0.0
  0
LINE
  8
ITEM_50
 10
253.68951
 20
212.955666
 30
0.0
 11
253.68951
 21
212.169879
 31
0.0
  0
LINE
  8
ITEM_50
 10
253.3966169999999
 20
211.4627729999999
 30
0.0
 11
250.9549649999999
 21
209.9568069999999
 31
0.0
  0
ARC
  8
ITEM_50
 10
253.38951
 20
212.955666
 30
0.0
 40
0.3
 50
0.0
 51
90.0
  0
LINE
  8
ITEM_50
 10
248.775297
 20
208.7556659999999
 30
0.0
 11
244.38951
 21
208.7556659999999
 31
0.0
  0
ARC
  8
ITEM_50
 10
248.775297
 20
209.755666
 30
0.0
 40
1.0
 50
270.0
 51
315.0
  0
ARC
  8
ITEM_50
 10
252.68951
 20
212.169879
 30
0.0
 40
1.0
 50
315.0
 51
0.0
  0
LINE
  8
ITEM_50
 10
245.38951
 20
224.255666
 30
0.0
 11
244.38951
 21
224.255666
 31
0.0
  0
LINE
  8
ITEM_25
 10
248.18951
 20
218.255666
 30
0.0
 11
248.18951
 21
209.20167
 31
0.0
  0
ARC
  8
ITEM_25
 10
249.68951
 20
218.255666
 30
0.0
 40
1.5
 50
90.0
 51
180.0
  0
ARC
  8
ITEM_50
 10
250.58951
 20
218.355666
 30
0.0
 40
1.399999999999999
 50
90.0
 51
180.0
  0
ARC
  8
ITEM_50
 10
242.88951
 20
213.029042
 30
0.0
 40
0.5
 50
0.0
 51
90.0
  0
ARC
  8
ITEM_50
 10
242.88951
 20
220.0121629999999
 30
0.0
 40
0.5
 50
270.0
 51
0.0
  0
LINE
  8
ITEM_50
 10
242.88951
 20
219.5121629999999
 30
0.0
 11
241.88951
 21
219.5121629999999
 31
0.0
  0
ARC
  8
ITEM_50
 10
241.88951
 20
219.0121629999999
 30
0.0
 40
0.5
 50
90.0
 51
180.0
  0
ARC
  8
ITEM_50
 10
241.88951
 20
214.029042
 30
0.0
 40
0.5
 50
180.0
 51
270.0
  0
LINE
  8
ITEM_50
 10
241.38951
 20
219.0121629999999
 30
0.0
 11
241.38951
 21
214.029042
 31
0.0
  0
ARC
  8
ITEM_50
 10
244.38951
 20
209.755666
 30
0.0
 40
1.0
 50
180.0
 51
270.0
  0
ARC
  8
ITEM_50
 10
244.38951
 20
223.255666
 30
0.0
 40
1.0
 50
90.0
 51
180.0
  0
LINE
  8
ITEM_50
 10
243.38951
 20
223.255666
 30
0.0
 11
243.38951
 21
220.0121629999999
 31
0.0
  0
LINE
  8
ITEM_50
 10
243.38951
 20
213.029042
 30
0.0
 11
243.38951
 21
209.755666
 31
0.0
  0
LINE
  8
ITEM_50
 10
241.88951
 20
213.529042
 30
0.0
 11
242.88951
 21
213.529042
 31
0.0
  0
LINE
  8
ITEM_25
 10
231.142377
 20
211.836883
 30
0.0
 11
231.142377
 21
213.087827
 31
0.0
  0
ARC
  8
ITEM_50
 10
202.086407
 20
209.755666
 30
0.0
 40
1.0
 50
180.0
 51
270.0
  0
ARC
  8
ITEM_50
 10
232.0864069999999
 20
209.755666
 30
0.0
 40
1.0
 50
270.0
 51
0.0
  0
ARC
  8
ITEM_50
 10
202.086407
 20
209.755666
 30
0.0
 40
1.0
 50
180.0
 51
270.0
  0
LINE
  8
ITEM_50
 10
246.273174
 20
199.253847
 30
0.0
 11
251.767906
 21
199.253847
 31
0.0
  0
LINE
  8
ITEM_50
 10
244.88951
 20
171.253847
 30
0.0
 11
243.38951
 21
171.253847
 31
0.0
  0
LINE
  8
ITEM_50
 10
241.38951
 20
168.753847
 30
0.0
 11
241.38951
 21
170.253847
 31
0.0
  0
ARC
  8
ITEM_50
 10
201.186407
 20
213.155666
 30
0.0
 40
0.1
 50
90.0
 51
180.0
  0
LINE
  8
ITEM_50
 10
233.0864069999999
 20
231.755666
 30
0.0
 11
233.0864069999999
 21
223.755666
 31
0.0
  0
LINE
  8
ITEM_50
 10
232.9864069999999
 20
213.255666
 30
0.0
 11
227.0864069999999
 21
213.255666
 31
0.0
  0
LINE
  8
ITEM_50
 10
207.086407
 20
213.255666
 30
0.0
 11
201.186407
 21
213.255666
 31
0.0
  0
LINE
  8
ITEM_50
 10
225.0864069999999
 20
213.255666
 30
0.0
 11
209.086407
 21
213.255666
 31
0.0
  0
LINE
  8
ITEM_50
 10
233.0864069999999
 20
209.755666
 30
0.0
 11
233.0864069999999
 21
211.034647
 31
0.0
  0
LINE
  8
ITEM_50
 10
202.086407
 20
208.7556659999999
 30
0.0
 11
232.0864069999999
 21
208.7556659999999
 31
0.0
  0
LINE
  8
ITEM_50
 10
209.086407
 20
213.255666
 30
0.0
 11
207.086407
 21
213.255666
 31
0.0
  0
LINE
  8
ITEM_50
 10
227.0864069999999
 20
213.255666
 30
0.0
 11
225.0864069999999
 21
213.255666
 31
0.0
  0
LINE
  8
ITEM_50
 10
245.38951
 20
168.253847
 30
0.0
 11
245.38951
 21
197.387821
 31
0.0
  0
ARC
  8
ITEM_50
 10
242.38951
 20
170.253847
 30
0.0
 40
1.0
 50
90.0
 51
180.0
  0
ARC
  8
ITEM_50
 10
244.88951
 20
171.753847
 30
0.0
 40
0.5
 50
270.0
 51
0.0
  0
LINE
  8
ITEM_50
 10
243.38951
 20
171.253847
 30
0.0
 11
242.38951
 21
171.253847
 31
0.0
  0
LINE
  8
ITEM_50
 10
243.38951
 20
168.753847
 30
0.0
 11
243.38951
 21
170.753847
 31
0.0
  0
LINE
  8
ITEM_50
 10
249.88951
 20
167.253847
 30
0.0
 11
242.88951
 21
167.253847
 31
0.0
  0
ARC
  8
ITEM_50
 10
243.88951
 20
170.753847
 30
0.0
 40
0.5
 50
90.0
 51
180.0
  0
LINE
  8
ITEM_50
 10
229.0864069999999
 20
219.755666
 30
0.0
 11
229.0864069999999
 21
213.255666
 31
0.0
  0
POLYLINE
  8
ITEM_50
 66
     1
 10
0.0
 20
0.0
 30
0.0
  0
VERTEX
  8
ITEM_50
 10
229.97781
 20
211.5642349999999
 30
0.0
 42
-0.021189
 70
     2
 50
162.4239179999999
  0
VERTEX
  8
ITEM_50
 10
230.2662629999999
 20
211.614591
 30
0.0
 42
-0.032627
  0
VERTEX
  8
ITEM_50
 10
231.0864069999999
 20
211.668166
 30
0.0
 42
-0.032627
  0
VERTEX
  8
ITEM_50
 10
231.906552
 20
211.614591
 30
0.0
 42
-0.044103
  0
VERTEX
  8
ITEM_50
 10
232.5006209999999
 20
211.482612
 30
0.0
 42
-0.086741
 70
     2
 50
197.576082
  0
VERTEX
  8
ITEM_50
 10
232.991187
 20
211.2273379999999
 30
0.0
 42
-0.2336
  0
VERTEX
  8
ITEM_50
 10
233.0864069999999
 20
211.034647
 30
0.0
 42
-0.2336
  0
SEQEND
  8
ITEM_50
  0
LINE
  8
ITEM_50
 10
229.97781
 20
211.5642349999999
 30
0.0
 11
201.567596
 21
208.900777
 31
0.0
  0
LINE
  8
ITEM_50
 10
233.0864069999999
 20
211.034647
 30
0.0
 11
233.0864069999999
 21
213.155666
 31
0.0
  0
ARC
  8
ITEM_50
 62
     7
 10
250.38951
 20
235.255666
 30
0.0
 40
0.5
 50
0.0
 51
90.0
  0
LINE
  8
ITEM_50
 10
380.2502509999999
 20
170.9836219999999
 30
0.0
 11
382.4502509999999
 21
170.9836219999999
 31
0.0
  0
LINE
  8
ITEM_50
 10
379.7502509999999
 20
170.4836219999999
 30
0.0
 11
379.7502509999999
 21
166.9836219999999
 31
0.0
  0
ARC
  8
ITEM_50
 10
380.2502509999999
 20
170.4836219999999
 30
0.0
 40
0.5
 50
90.0
 51
180.0
  0
ARC
  8
ITEM_50
 10
380.2502509999999
 20
166.9836219999999
 30
0.0
 40
0.5
 50
180.0
 51
270.0
  0
ARC
  8
ITEM_50
 10
379.2502509999999
 20
181.4836219999999
 30
0.0
 40
0.5
 50
0.0
 51
90.0
  0
LINE
  8
ITEM_50
 10
379.7502509999999
 20
177.9758439999999
 30
0.0
 11
379.7502509999999
 21
181.4836219999999
 31
0.0
  0
LINE
  8
ITEM_50
 62
     7
 10
379.2502509999999
 20
181.9836219999999
 30
0.0
 11
377.7502509999999
 21
181.9836219999999
 31
0.0
  0
ARC
  8
ITEM_50
 62
     7
 10
399.650524
 20
177.9836219999999
 30
0.0
 40
0.5
 50
180.0
 51
270.0
  0
ARC
  8
ITEM_50
 10
373.964464
 20
167.4836219999999
 30
0.0
 40
1.0
 50
225.0
 51
270.0
  0
ARC
  8
ITEM_50
 10
372.1502509999999
 20
176.0836219999999
 30
0.0
 40
1.399999999999999
 50
90.0
 51
90.0
  0
LINE
  8
ITEM_50
 62
     7
 10
372.1502509999999
 20
177.4836219999999
 30
0.0
 11
371.8502509999999
 21
177.4836219999999
 31
0.0
  0
ARC
  8
ITEM_50
 62
     7
 10
372.1502509999999
 20
176.0836219999999
 30
0.0
 40
1.399999999999999
 50
0.0
 51
90.0
  0
LINE
  8
ITEM_25
 10
374.550251
 20
175.9836219999999
 30
0.0
 11
374.550251
 21
166.929626
 31
0.0
  0
ARC
  8
ITEM_25
 10
373.050251
 20
175.9836219999999
 30
0.0
 40
1.5
 50
0.0
 51
90.0
  0
ARC
  8
ITEM_50
 62
     7
 10
399.650524
 20
192.9836219999999
 30
0.0
 40
0.5
 50
90.0
 51
180.0
  0
ARC
  8
ITEM_50
 62
     7
 10
403.650524
 20
192.4836219999999
 30
0.0
 40
1.0
 50
0.0
 51
90.0
  0
LINE
  8
ITEM_50
 62
     7
 10
404.650524
 20
192.4836219999999
 30
0.0
 11
404.650524
 21
178.4836219999999
 31
0.0
  0
LINE
  8
ITEM_50
 62
     7
 10
399.650524
 20
193.4836219999999
 30
0.0
 11
403.650524
 21
193.4836219999999
 31
0.0
  0
LINE
  8
ITEM_50
 62
     7
 10
399.150524
 20
177.9836219999999
 30
0.0
 11
399.150524
 21
192.9836219999999
 31
0.0
  0
LINE
  8
ITEM_50
 62
     7
 10
403.650524
 20
177.4836219999999
 30
0.0
 11
399.650524
 21
177.4836219999999
 31
0.0
  0
LINE
  8
ITEM_STPG
 10
391.9997149999999
 20
185.4836219999999
 30
0.0
 11
405.779921
 21
185.4836219999999
 31
0.0
  0
ARC
  8
ITEM_50
 62
     7
 10
403.650524
 20
178.4836219999999
 30
0.0
 40
1.0
 50
270.0
 51
0.0
  0
ARC
  8
ITEM_50
 62
     7
 10
403.650524
 20
144.773207
 30
0.0
 40
1.0
 50
0.0
 51
90.0
  0
LINE
  8
ITEM_STPG
 10
396.0613399999999
 20
136.773207
 30
0.0
 11
405.779921
 21
136.773207
 31
0.0
  0
LINE
  8
ITEM_50
 62
     7
 10
403.650524
 20
145.773207
 30
0.0
 11
399.650524
 21
145.773207
 31
0.0
  0
LINE
  8
ITEM_50
 62
     7
 10
399.150524
 20
145.273207
 30
0.0
 11
399.150524
 21
114.273207
 31
0.0
  0
LINE
  8
ITEM_50
 62
     7
 10
399.650524
 20
113.773207
 30
0.0
 11
403.650524
 21
113.773207
 31
0.0
  0
LINE
  8
ITEM_50
 62
     7
 10
404.650524
 20
114.773207
 30
0.0
 11
404.650524
 21
144.773207
 31
0.0
  0
ARC
  8
ITEM_50
 62
     7
 10
403.650524
 20
114.773207
 30
0.0
 40
1.0
 50
270.0
 51
0.0
  0
ARC
  8
ITEM_50
 62
     7
 10
399.650524
 20
145.273207
 30
0.0
 40
0.5
 50
90.0
 51
180.0
  0
ARC
  8
ITEM_50
 62
     7
 10
399.650524
 20
114.273207
 30
0.0
 40
0.5
 50
180.0
 51
270.0
  0
LINE
  8
ITEM_STPG
 10
391.6702399999999
 20
122.773207
 30
0.0
 11
405.779921
 21
122.773207
 31
0.0
  0
LINE
  8
ITEM_STPG
 10
368.596308
 20
136.773207
 30
0.0
 11
390.962152
 21
136.773207
 31
0.0
  0
LINE
  8
ITEM_STPG
 10
384.301779
 20
122.773207
 30
0.0
 11
376.6254
 21
122.773207
 31
0.0
  0
LINE
  8
ITEM_STPG
 10
360.071347
 20
122.773207
 30
0.0
 11
350.4294669999999
 21
122.773207
 31
0.0
  0
ARC
  8
ITEM_50
 62
     7
 10
356.5588649999999
 20
114.273207
 30
0.0
 40
0.5
 50
270.0
 51
0.0
  0
ARC
  8
ITEM_50
 62
     7
 10
356.5588649999999
 20
145.273207
 30
0.0
 40
0.5
 50
0.0
 51
90.0
  0
ARC
  8
ITEM_50
 62
     7
 10
352.5588649999999
 20
114.773207
 30
0.0
 40
1.0
 50
180.0
 51
270.0
  0
LINE
  8
ITEM_50
 62
     7
 10
351.5588649999999
 20
114.773207
 30
0.0
 11
351.5588649999999
 21
144.773207
 31
0.0
  0
LINE
  8
ITEM_50
 62
     7
 10
356.5588649999999
 20
113.773207
 30
0.0
 11
352.5588649999999
 21
113.773207
 31
0.0
  0
LINE
  8
ITEM_50
 62
     7
 10
357.0588649999999
 20
145.273207
 30
0.0
 11
357.0588649999999
 21
114.273207
 31
0.0
  0
LINE
  8
ITEM_50
 62
     7
 10
352.5588649999999
 20
145.773207
 30
0.0
 11
356.5588649999999
 21
145.773207
 31
0.0
  0
LINE
  8
ITEM_GSTR
 62
     6
 10
354.8068859999999
 20
139.272011
 30
0.0
 11
352.305965
 21
141.7729319999999
 31
0.0
  0
LINE
  8
ITEM_GSTR
 62
     6
 10
354.804863
 20
134.2723799999999
 30
0.0
 11
352.305965
 21
131.773482
 31
0.0
  0
LINE
  8
ITEM_STPG
 10
364.4713759999999
 20
136.773207
 30
0.0
 11
350.4294669999999
 21
136.773207
 31
0.0
  0
ARC
  8
ITEM_50
 62
     7
 10
352.5588649999999
 20
144.773207
 30
0.0
 40
1.0
 50
90.0
 51
180.0
  0
LINE
  8
ITEM_50
 10
382.2502509999999
 20
145.773207
 30
0.0
 11
375.2502509999999
 21
145.773207
 31
0.0
  0
ARC
  8
ITEM_50
 10
377.2502509999999
 20
144.273207
 30
0.0
 40
1.5
 50
90.0
 51
109.5674379999999
  0
ARC
  8
ITEM_50
 10
377.2502509999999
 20
141.273207
 30
0.0
 40
0.5
 50
0.0
 51
78.463041
  0
LINE
  8
ITEM_50
 10
377.7502509999999
 20
144.773207
 30
0.0
 11
377.7502509999999
 21
115.639232
 31
0.0
  0
LINE
  8
ITEM_50
 10
378.633914
 20
113.773207
 30
0.0
 11
384.128646
 21
113.773207
 31
0.0
  0
LINE
  8
ITEM_50
 10
383.2502509999999
 20
114.773207
 30
0.0
 11
383.2502509999999
 21
144.773207
 31
0.0
  0
ARC
  8
ITEM_50
 10
378.7502509999999
 20
144.773207
 30
0.0
 40
1.0
 50
90.0
 51
180.0
  0
ARC
  8
ITEM_50
 10
382.2502509999999
 20
144.773207
 30
0.0
 40
1.0
 50
0.0
 51
90.0
  0
ARC
  8
ITEM_50
 10
382.2502509999999
 20
114.773207
 30
0.0
 40
1.0
 50
270.0
 51
0.0
  0
LINE
  8
ITEM_50
 10
383.2502509999999
 20
133.4372149999999
 30
0.0
 11
384.424862
 21
126.2955809999999
 31
0.0
  0
ARC
  8
ITEM_50
 10
384.128646
 20
115.773207
 30
0.0
 40
2.0
 50
270.0
 51
9.340033
  0
LINE
  8
ITEM_50
 10
377.7502509999999
 20
115.639232
 30
0.0
 11
378.1509509999999
 21
114.143798
 31
0.0
  0
LINE
  8
ITEM_GSTR
 10
378.2502509999999
 20
117.773207
 30
0.0
 11
379.550251
 21
117.773207
 31
0.0
  0
ARC
  8
ITEM_GSTR
 10
379.550251
 20
117.573207
 30
0.0
 40
0.2
 50
0.0
 51
90.0
  0
LINE
  8
ITEM_GSTR
 10
379.7502509999999
 20
117.573207
 30
0.0
 11
379.7502509999999
 21
115.773207
 31
0.0
  0
ARC
  8
ITEM_GSTR
 10
381.7502509999999
 20
115.773207
 30
0.0
 40
2.0
 50
180.0
 51
270.0
  0
ARC
  8
ITEM_GSTR
 10
378.2502509999999
 20
118.273207
 30
0.0
 40
0.5
 50
180.0
 51
270.0
  0
ARC
  8
ITEM_50
 10
378.633914
 20
114.273207
 30
0.0
 40
0.5
 50
195.0
 51
270.0
  0
ARC
  8
ITEM_50
 10
376.466587
 20
145.273207
 30
0.0
 40
0.5
 50
14.99999999999999
 51
90.0
  0
ARC
  8
ITEM_GSTR
 10
376.8502509999999
 20
141.273207
 30
0.0
 40
0.5
 50
0.0
 51
90.0
  0
ARC
  8
ITEM_GSTR
 10
373.3502509999999
 20
143.773207
 30
0.0
 40
2.0
 50
0.0
 51
90.0
  0
LINE
  8
ITEM_GSTR
 10
375.3502509999999
 20
141.973207
 30
0.0
 11
375.3502509999999
 21
143.773207
 31
0.0
  0
ARC
  8
ITEM_GSTR
 10
375.550251
 20
141.973207
 30
0.0
 40
0.2
 50
180.0
 51
270.0
  0
LINE
  8
ITEM_GSTR
 10
376.8502509999999
 20
141.773207
 30
0.0
 11
375.550251
 21
141.773207
 31
0.0
  0
LINE
  8
ITEM_50
 10
377.3502509999999
 20
143.907182
 30
0.0
 11
376.9495499999999
 21
145.4026169999999
 31
0.0
  0
ARC
  8
ITEM_50
 10
370.971855
 20
143.773207
 30
0.0
 40
2.0
 50
90.0
 51
189.340033
  0
LINE
  8
ITEM_50
 10
371.8502509999999
 20
126.109199
 30
0.0
 11
370.6756389999999
 21
133.250833
 31
0.0
  0
ARC
  8
ITEM_50
 10
372.8502509999999
 20
144.773207
 30
0.0
 40
1.0
 50
90.0
 51
180.0
  0
ARC
  8
ITEM_50
 10
372.8502509999999
 20
114.773207
 30
0.0
 40
1.0
 50
180.0
 51
270.0
  0
ARC
  8
ITEM_50
 10
376.3502509999999
 20
114.773207
 30
0.0
 40
1.0
 50
270.0
 51
0.0
  0
LINE
  8
ITEM_50
 10
371.8502509999999
 20
144.773207
 30
0.0
 11
371.8502509999999
 21
114.773207
 31
0.0
  0
ARC
  8
ITEM_50
 10
377.8502509999999
 20
115.273207
 30
0.0
 40
1.5
 50
270.0
 51
289.5674379999999
  0
LINE
  8
ITEM_50
 10
376.466587
 20
145.773207
 30
0.0
 11
370.971855
 21
145.773207
 31
0.0
  0
LINE
  8
ITEM_50
 10
377.3502509999999
 20
114.773207
 30
0.0
 11
377.3502509999999
 21
143.907182
 31
0.0
  0
ARC
  8
ITEM_50
 10
377.8502509999999
 20
118.273207
 30
0.0
 40
0.5
 50
180.0
 51
258.463041
  0
LINE
  8
ITEM_50
 10
372.8502509999999
 20
113.773207
 30
0.0
 11
379.8502509999999
 21
113.773207
 31
0.0
  0
ARC
  8
ITEM_50
 62
     7
 10
382.7502509999999
 20
177.9730659999999
 30
0.0
 40
0.5
 50
276.0423279999999
 51
0.0
  0
ARC
  8
ITEM_50
 62
     7
 10
352.5588649999999
 20
178.4836219999999
 30
0.0
 40
1.0
 50
180.0
 51
270.0
  0
LINE
  8
ITEM_STPG
 10
364.4615749999999
 20
185.4836219999999
 30
0.0
 11
350.4294669999999
 21
185.4836219999999
 31
0.0
  0
LINE
  8
ITEM_50
 62
     7
 10
352.5588649999999
 20
177.4836219999999
 30
0.0
 11
356.5588649999999
 21
177.4836219999999
 31
0.0
  0
LINE
  8
ITEM_50
 62
     7
 10
357.0588649999999
 20
177.9836219999999
 30
0.0
 11
357.0588649999999
 21
192.9836219999999
 31
0.0
  0
LINE
  8
ITEM_50
 62
     7
 10
356.5588649999999
 20
193.4836219999999
 30
0.0
 11
352.5588649999999
 21
193.4836219999999
 31
0.0
  0
LINE
  8
ITEM_50
 62
     7
 10
351.5588649999999
 20
192.4836219999999
 30
0.0
 11
351.5588649999999
 21
178.4836219999999
 31
0.0
  0
ARC
  8
ITEM_50
 62
     7
 10
352.5588649999999
 20
192.4836219999999
 30
0.0
 40
1.0
 50
90.0
 51
180.0
  0
ARC
  8
ITEM_50
 62
     7
 10
356.5588649999999
 20
177.9836219999999
 30
0.0
 40
0.5
 50
270.0
 51
0.0
  0
ARC
  8
ITEM_50
 62
     7
 10
356.5588649999999
 20
192.9836219999999
 30
0.0
 40
0.5
 50
0.0
 51
90.0
  0
LINE
  8
ITEM_50
 10
381.550251
 20
175.0836219999999
 30
0.0
 11
381.550251
 21
173.0836219999999
 31
0.0
  0
LINE
  8
ITEM_50
 10
373.550251
 20
173.0836219999999
 30
0.0
 11
373.550251
 21
175.0836219999999
 31
0.0
  0
LINE
  8
ITEM_STPG
 10
391.081997
 20
185.4836219999999
 30
0.0
 11
368.2488189999999
 21
185.4836219999999
 31
0.0
  0
ARC
  8
ITEM_50
 62
     7
 10
382.9502509999999
 20
176.0836219999999
 30
0.0
 40
1.399999999999999
 50
96.04232799999999
 51
180.0
  0
ARC
  8
ITEM_50
 62
     7
 10
378.7502509999999
 20
192.4836219999999
 30
0.0
 40
1.0
 50
90.0
 51
180.0
  0
LINE
  8
ITEM_50
 62
     7
 10
377.7502509999999
 20
192.4836219999999
 30
0.0
 11
377.7502509999999
 21
181.9836219999999
 31
0.0
  0
LINE
  8
ITEM_50
 62
     7
 10
382.7502509999999
 20
193.4836219999999
 30
0.0
 11
378.7502509999999
 21
193.4836219999999
 31
0.0
  0
LINE
  8
ITEM_50
 62
     7
 10
383.2502509999999
 20
177.9730659999999
 30
0.0
 11
383.2502509999999
 21
192.9836219999999
 31
0.0
  0
LINE
  8
ITEM_50
 10
383.3157049999999
 20
167.6847629999999
 30
0.0
 11
381.8431439999999
 21
166.7765149999999
 31
0.0
  0
LINE
  8
ITEM_50
 10
383.438355
 20
170.9836219999999
 30
0.0
 11
385.7502509999999
 21
170.9836219999999
 31
0.0
  0
ARC
  8
ITEM_50
 10
382.4502509999999
 20
171.883622
 30
0.0
 40
0.9
 50
180.0
 51
270.0
  0
ARC
  8
ITEM_50
 10
382.9502509999999
 20
176.0836219999999
 30
0.0
 40
1.399999999999999
 50
96.04232799999999
 51
180.0
  0
LINE
  8
ITEM_50
 10
381.550251
 20
176.0836219999999
 30
0.0
 11
381.550251
 21
171.883622
 31
0.0
  0
LINE
  8
ITEM_50
 10
382.4502509999999
 20
170.9836219999999
 30
0.0
 11
383.438355
 21
170.9836219999999
 31
0.0
  0
LINE
  8
ITEM_50
 10
386.050251
 20
170.6836219999999
 30
0.0
 11
386.050251
 21
169.897835
 31
0.0
  0
LINE
  8
ITEM_50
 10
385.7573569999999
 20
169.190728
 30
0.0
 11
383.3157049999999
 21
167.6847629999999
 31
0.0
  0
ARC
  8
ITEM_50
 10
385.7502509999999
 20
170.6836219999999
 30
0.0
 40
0.3
 50
0.0
 51
90.0
  0
LINE
  8
ITEM_50
 10
381.1360369999999
 20
166.4836219999999
 30
0.0
 11
373.964464
 21
166.4836219999999
 31
0.0
  0
ARC
  8
ITEM_50
 10
381.1360369999999
 20
167.4836219999999
 30
0.0
 40
1.0
 50
270.0
 51
315.0
  0
ARC
  8
ITEM_50
 10
385.050251
 20
169.897835
 30
0.0
 40
1.0
 50
315.0
 51
0.0
  0
ARC
  8
ITEM_50
 10
382.9502509999999
 20
176.0836219999999
 30
0.0
 40
1.399999999999999
 50
96.04232799999999
 51
180.0
  0
ARC
  8
ITEM_50
 62
     7
 10
382.7502509999999
 20
192.9836219999999
 30
0.0
 40
0.5
 50
0.0
 51
90.0
  0
LINE
  8
ITEM_50
 62
     7
 10
371.8502509999999
 20
177.4836219999999
 30
0.0
 11
371.8502509999999
 21
192.9836219999999
 31
0.0
  0
LINE
  8
ITEM_50
 62
     7
 10
372.3502509999999
 20
193.4836219999999
 30
0.0
 11
376.3502509999999
 21
193.4836219999999
 31
0.0
  0
LINE
  8
ITEM_50
 62
     7
 10
377.3502509999999
 20
181.9836219999999
 30
0.0
 11
377.3502509999999
 21
192.4836219999999
 31
0.0
  0
ARC
  8
ITEM_50
 62
     7
 10
376.3502509999999
 20
192.4836219999999
 30
0.0
 40
1.0
 50
0.0
 51
90.0
  0
ARC
  8
ITEM_50
 10
372.6502509999999
 20
171.883622
 30
0.0
 40
0.9
 50
270.0
 51
0.0
  0
ARC
  8
ITEM_50
 10
370.050251
 20
169.897835
 30
0.0
 40
1.0
 50
180.0
 51
225.0
  0
ARC
  8
ITEM_50
 10
369.3502509999999
 20
170.6836219999999
 30
0.0
 40
0.3
 50
90.0
 51
180.0
  0
LINE
  8
ITEM_50
 10
369.3431439999999
 20
169.190728
 30
0.0
 11
373.2573569999999
 21
166.7765149999999
 31
0.0
  0
LINE
  8
ITEM_50
 10
369.050251
 20
170.6836219999999
 30
0.0
 11
369.050251
 21
169.897835
 31
0.0
  0
LINE
  8
ITEM_50
 10
373.550251
 20
171.883622
 30
0.0
 11
373.550251
 21
176.283622
 31
0.0
  0
ARC
  8
ITEM_50
 10
379.8502509999999
 20
170.7336219999999
 30
0.0
 40
0.5
 50
90.0
 51
180.0
  0
ARC
  8
ITEM_50
 10
379.8502509999999
 20
177.7401179999999
 30
0.0
 40
0.5
 50
180.0
 51
270.0
  0
LINE
  8
ITEM_50
 10
379.8502509999999
 20
177.2401179999999
 30
0.0
 11
380.8502509999999
 21
177.2401179999999
 31
0.0
  0
ARC
  8
ITEM_50
 10
380.8502509999999
 20
176.7401179999999
 30
0.0
 40
0.5
 50
0.0
 51
90.0
  0
ARC
  8
ITEM_50
 10
380.8502509999999
 20
171.7336219999999
 30
0.0
 40
0.5
 50
270.0
 51
0.0
  0
LINE
  8
ITEM_50
 10
381.3502509999999
 20
176.7401179999999
 30
0.0
 11
381.3502509999999
 21
171.7336219999999
 31
0.0
  0
ARC
  8
ITEM_50
 10
378.3502509999999
 20
167.4836219999999
 30
0.0
 40
1.0
 50
270.0
 51
0.0
  0
ARC
  8
ITEM_50
 10
378.3502509999999
 20
180.9836219999999
 30
0.0
 40
1.0
 50
0.0
 51
90.0
  0
LINE
  8
ITEM_50
 10
379.3502509999999
 20
180.9836219999999
 30
0.0
 11
379.3502509999999
 21
177.7401179999999
 31
0.0
  0
LINE
  8
ITEM_50
 10
379.3502509999999
 20
170.7336219999999
 30
0.0
 11
379.3502509999999
 21
167.4836219999999
 31
0.0
  0
LINE
  8
ITEM_50
 10
380.8502509999999
 20
171.2336219999999
 30
0.0
 11
379.8502509999999
 21
171.2336219999999
 31
0.0
  0
LINE
  8
ITEM_50
 10
377.3502509999999
 20
181.9836219999999
 30
0.0
 11
378.3502509999999
 21
181.9836219999999
 31
0.0
  0
LINE
  8
ITEM_50
 10
374.550251
 20
166.4836219999999
 30
0.0
 11
378.3502509999999
 21
166.4836219999999
 31
0.0
  0
LINE
  8
ITEM_50
 10
372.6502509999999
 20
170.9836219999999
 30
0.0
 11
369.3502509999999
 21
170.9836219999999
 31
0.0
  0
ARC
  8
ITEM_50
 62
     7
 10
372.3502509999999
 20
192.9836219999999
 30
0.0
 40
0.5
 50
90.0
 51
180.0
  0
ENDSEC
  0
EOF
